Bloc Party - Like Eating Glass Chords & Tabs

 

Like Eating Glass Chords & Tabs

Bloc Party Chords & Tabs

Version: 1 Type: Tab 0 ratings
1 star 2 stars 3 stars 4 stars 5 stars
comments

Like Eating Glass Tab

Band: Bloc Party
Song: Like Eating Glass
Tabbed by: www.alittleleftbehind.tk (Daniel King)

Intro/Verse

Guitar 1 (Mess with effects and feedback)

e]--------|
b]--------|
g]--9-----|
d]--------|
a]--7-----|
e]--------|

e]----------|
b]----------|
g]--9-/-4---|
d]----------|
a]--7-/-2---|
e]----------|

Guitar 2

e]---------------------------------------------------|
b]-------------------Repeat-Over---------------------|
g]---------------------------------------------------|
d]---------------------------------------------------|
a]--7-7-7-7-7-7-7-7-7-7-7-7-7-7-7-7------------------|
e]---------------------------------------------------|

e]------------------------------------------------------------------------------|
b]------------------------------------------------------------------------------|
g]--9--9--9--9--9--9--9--9---9-9-9-9-9-9-9-9--9-9-9-9-9-9-9-9--9-9-9-9-9-9-9-9--|
d]--11-11-11-11-11-11-11-11--9-9-9-9-9-9-9-9--7-7-7-7-7-7-7-7--7-7-7-7-7-7-7-7--|
a]------------------------------------------------------------------------------|
e]------------------------------------------------------------------------------|

Interlude

e]-------------------------------------------------------------|
b]---------------12----12----12----12----12----12----12----12--|
g]--11-11-11--11----11----11----11----11----11----11----11-----|
d]-------------------------------------------------------------|
a]-------------------------------------------------------------|
e]-------------------------------------------------------------|

Verse 2

Guitar 1

e]------------------------------------------------------------------------------|
b]------------------------------------------------------------------------------|
g]--9--9--9--9--9--9--9--9---9-9-9-9-9-9-9-9--9-9-9-9-9-9-9-9--9-9-9-9-9-9-9-9--|
d]--11-11-11-11-11-11-11-11--9-9-9-9-9-9-9-9--7-7-7-7-7-7-7-7--7-7-7-7-7-7-7-7--|
a]------------------------------------------------------------------------------|
e]------------------------------------------------------------------------------|

Guitar 2

e]------------------------------------------------------------------------|
b]------------------------------------------------------------------------|
g]--6-6-6-6-6-6-6-6--4-4-4-4-4-4-4-4--2-2-2-2-2-2-2-/-4--1-1-1-1-1-1-1-1--|
d]------------------------------------------------------------------------|
a]------------------------------------------------------------------------|
e]------------------------------------------------------------------------|

Chorus

e]-------------------------------------------------------------------------|
b]-------------------------------------------------------------------------|
g]--9-9-9-9-9-9-9-9-9-9-9-9-9-9-9-9----------------------------------------|
d]--9-9-9-9-9-9-9-9-9-9-9-9-9-9-9-9--6-6-6-6-6-6-6-6-6-6-6-6-6-6-6-6-------|
a]--7-7-7-7-7-7-7-7-7-7-7-7-7-7-7-7--6-6-6-6-6-6-6-6-6-6-6-6-6-6-6-6-------|
e]-----------------------------------4-4-4-4-4-4-4-4-4-4-4-4-4-4-4-4-------|

Verse 3

Guitar 1
[ Tab from: http://www.guitartabs.cc/tabs/b/bloc_party/like_eating_glass_tab.html ]
e]------------------------------------------------------------------------------|
b]------------------------------------------------------------------------------|
g]--9--9--9--9--9--9--9--9---9-9-9-9-9-9-9-9--9-9-9-9-9-9-9-9--9-9-9-9-9-9-9-9--|
d]--11-11-11-11-11-11-11-11--9-9-9-9-9-9-9-9--7-7-7-7-7-7-7-7--7-7-7-7-7-7-7-7--|
a]------------------------------------------------------------------------------|
e]------------------------------------------------------------------------------|

Guitar 2 (Messes with Effects, Delay)

Chorus

Guitar 1

e]-------------------------------------------------------------------------|
b]-------------------------------------------------------------------------|
g]--9-9-9-9-9-9-9-9-9-9-9-9-9-9-9-9----------------------------------------|
d]--9-9-9-9-9-9-9-9-9-9-9-9-9-9-9-9--6-6-6-6-6-6-6-6-6-6-6-6-6-6-6-6-------|
a]--7-7-7-7-7-7-7-7-7-7-7-7-7-7-7-7--6-6-6-6-6-6-6-6-6-6-6-6-6-6-6-6-------|
e]-----------------------------------4-4-4-4-4-4-4-4-4-4-4-4-4-4-4-4-------|

Guitar 2

e]-11-11-11-11-11-11-11-11-11-11-11-11-11-11-11-11-11-11---|
b]---------------------------------------------------------|
g]---------------------------------------------------------|
d]---------------------------------------------------------|
a]---------------------------------------------------------|
e]---------------------------------------------------------|

e]--7-7-7-7-7-7-7-7--9-9-9-9-9-9-9-9------|
b]----------------------------------------|
g]----------------------------------------|
d]----------------------------------------|
a]----------------------------------------|
e]----------------------------------------|

Outro 1

Guitar 1

e]---------------------------------------------------------------------------------|
b]---------------------------------------------------------------------------------|
g]--9--9--9--9--9--9--9--9---9-9-9-9-9-9-9-9--9-9-9-9-9-9-9-9--9--8-8-8-8-8-8-8-8--|
d]--11-11-11-11-11-11-11-11--9-9-9-9-9-9-9-9--7-7-7-7-7-7-7-7--9--6-6-6-6-6-6-6-6--|
a]---------------------------------------------------------------------------------|
e]---------------------------------------------------------------------------------|

Guitar 2

e]---------------------------------------------------|
b]---------------------------------------------------|
g]--------13-13-------13----------13-13-------13-----|
d]--11-11-------11-11----11--------------------------|
a]--------------------------14-14-------14-14----14--|
e]---------------------------------------------------|

e]---------------------------------------------------|
b]--------12-12--------------------12-12-------------|
g]--------------------13-----------------------13----|
d]---------------------------------------------------|
a]--12-12-------12-12----12--12-12-------12-12----12-|
e]---------------------------------------------------|

Guitar 2 Variation

e]------------------------------------------------------|
b]------------------------------------------------------|
g]--------13-13-------13----------13-16-16-16-14-13-11--|
d]--11-11-------11-11----11-----------------------------|
a]--------------------------14-14-----------------------|
e]------------------------------------------------------|

e]---------------------------------------------------|
b]--------12-12--------------------12-12-------------|
g]--------------------13-----------------------13----|
d]---------------------------------------------------|
a]--12-12-------12-12----12--12-12-------12-12----12-|
e]---------------------------------------------------|
Comments