Bloc Party - Helicopter Chords & Tabs

 

Helicopter Chords & Tabs

Bloc Party Chords & Tabs

Version: 1 Type: Tab 1 rating
1 star 2 stars 3 stars 4 stars 5 stars
comments

Helicopter Tab

Bloc party

Helicopter
|----------------------------------------------------| 
|----------------------------------------------------|
|----------------------------------------------------|
|------9-9-7-7-------------------11-11-11-9-9--------|
|-----------------9-9---7-7---9----------------------|
|--7-7-----------------------------------------------|


|--------------------------------------------|
|--------------------------------------------|
|---------7--------9-------------------------|
|-9-------7--------9-------------------------|
|-9-------5--------7-------------------------|
|-7------------------------------------------|

you can figure out the rhythm yourself


|---7-7-7--7-7-7---7-7----7-7-------------------------|
|---7-7-7--7-7-10--7-7----7-7-------------------------|
|---7-7-7--7-7-7---7-7h9-7-7--------------------------|
|---7-7-7--7-7-7---7-7----7-7---------------x2--------|
|---7-7-7--7-7-7---7-7----7-7-------------------------|
|-----------------------------------------------------|

[ Tab from: http://www.guitartabs.cc/tabs/b/bloc_party/helicopter_tab.html ]
|-5-----7--------------------------------------------|
|-6-----7--------------------------------------------|
|-7-----8------they are the two chords,--------------|
|-7-----9------you can get the rhythm yourself-------|
|-5-----9--------------------------------------------|
|-------7--------------------------------------------|


|---------------------------------|------|----------------|
|---------------------------------|------|-10-7-----------|
|---------------------------------|------|------9-7-7h9---|
|-9-----7------5-5-5-5-5-5-5/4----|------|--------------9-|
|-9-x8--7-x8---5-5-5-5-5-5-5/4----|------|----------------|
|-7-----5------3-3-3-3-3-3-3/2----|------|----------------|


|-----------------|
|--7--------------|
|--9b(11)---------|
|-----------------|
|-----------------|
|-----------------|


the bend that is heard is this one



solo bit

|-x on-13-|-x-13-x-13--------------------|
|-x on-13-|-x-x--x--x--------------------|
|-x on-13-|-x-x--x--x-----keles part-----|
|-x on-13-|-x-x--x--x--------------------|
|---------|------------------------------|
|---------|------------------------------|


|---7--10--7-----10---10-----------------|
|-------------10----8--------------------|
|--------------------------repeated------|
|----------------------------------------|
|----------------------------------------|
|----------------------------------------|


ending riff over chords


|--15-14--------------------------|
|--------15--x's however many-----|
|---------------------------------|
|---------------------------------|
|---------------------------------|
|---------------------------------|
Comments