Bloc Party - Helicopter Chords & Tabs

 

Helicopter Chords & Tabs

Bloc Party Chords & Tabs

Version: 1 Type: Bass Tab 0 ratings
1 star 2 stars 3 stars 4 stars 5 stars
comments

Helicopter Bass Tab

----------------------------------------------------------------------------
			     Helicopter - Bloc Party
----------------------------------------------------------------------------

Tabbed By : imessyou
e-mail: jimmyloo78@hotmail.com

Tuning: Standard

Intro Riff(Comes in after guitar riff x2)
G|-------------------|------------------------------------------------------|
D|-------------------|------------------------------------------------------|
A|-------------------|--5-5-5-5---7-7-7-7-----------------------------------|
E|-7-7-7-7---7-7-7-7-|------------------------------------------------------|

Verse Riff
G|-------------------|------------------------------------------------------|
D|-------------------|------------------------------------------------------|
A|-------------------|--5-5-5-5---7-7-7-7-----------------------------------|
E|-7-7-7-7---7-7-7-7-|------------------------------------------------------|

Pre Chorus
G|----------------|----------------|----------------|--------------------|--|
D|----------------|----------------|----------------|--------------------|--|
A|----------------|----------------|----------------|--------------------|--|
E|2-2-2-2-2-2-2-2-|7-7-7-7-7-7-7-7-|2-2-2-2-2-2-2-2-|7-7---2-2-2-2-2-2-2-|--|

Pre Chorus cont
G|-----------------|-----------------|--------------------------------------|
D|-----------------|-----------------|--------------------------------------|
A|-----------------|-5-5-5-5-5-5-5-5-|5-5-5-5-5-5-5-5-----------------------|
E|-7-7-7-7-7-7-7-7-|-----------------|--------------------------------------|

Chorus
"Are you hoping for a miracle..."
G|-------------------------|-----------------------|------------------------|
D|-------------------------|-----------------------|------------------------|
A|-14-14-14-14-14-14-14-14-|12-12-12-12-12-12-12-12|10-10-10-10-10-10-10-10-|
E|-------------------------|-----------------------|------------------------|

Chorus cont
G|--------------------------------------------------------------------------|
D|--------------------------------------------------------------------------|
A|-----------10-10-9-9------------------------------------------------------|
E|-10-10-9-9----------------------------------------------------------------|

Fourth time through the chorus
G|-----------------------|-----------------------|--------------------------|
D|-----------------------|-----------------------|--------------------------|
A|14-14-14-14-14-14-14-14|12-12-12-12-12-12-12-12|10-10-10-10-----10-9------|
E|-----------------------|-----------------------|-----------10-9-----------|

Verse Riff
G|-------------------|------------------------------------------------------|
D|-------------------|------------------------------------------------------|
A|-------------------|--5-5-5-5---7-7-7-7-----------------------------------|
E|-7-7-7-7---7-7-7-7-|------------------------------------------------------|
[ Tab from: http://www.guitartabs.cc/tabs/b/bloc_party/helicopter_btab.html ]
Pre Chorus
G|----------------|----------------|----------------|--------------------|--|
D|----------------|----------------|----------------|--------------------|--|
A|----------------|----------------|----------------|--------------------|--|
E|2-2-2-2-2-2-2-2-|7-7-7-7-7-7-7-7-|2-2-2-2-2-2-2-2-|7-7---2-2-2-2-2-2-2-|--|

Pre Chorus cont
G|-----------------|-----------------|--------------------------------------|
D|-----------------|-----------------|--------------------------------------|
A|-----------------|-5-5-5-5-5-5-5-5-|5-5-5-5-5-5-5-5-----------------------|
E|-7-7-7-7-7-7-7-7-|-----------------|--------------------------------------|

Chorus
"Are you hoping for a miracle..."
G|-------------------------|-----------------------|------------------------|
D|-------------------------|-----------------------|------------------------|
A|-14-14-14-14-14-14-14-14-|12-12-12-12-12-12-12-12|10-10-10-10-10-10-10-10-|
E|-------------------------|-----------------------|------------------------|

Chorus cont
G|--------------------------------------------------------------------------|
D|--------------------------------------------------------------------------|
A|-----------10-10-9-9------------------------------------------------------|
E|-10-10-9-9----------------------------------------------------------------|

Breakdown
G|-------------------------|------------------------------------------------|
D|-------------------------|------------------------------------------------|
A|-14-14-14-14-14-14-14-14-|-14-14-14-14-14-14-14-14------------------------|
E|-------------------------|------------------------------------------------|

Breakdown cont
G|---------------------------|---------------------------|------------------|
D|-12-12-12-12---12-12-12-12-|-12-12-12-12---12-12-12-11-|17-17-17-16-------|
A|-14-14-14-14---14-14-14-14-|-14-14-14-14---14-14-14-14-|14-14-14-14-------|
E|---------------------------|---------------------------|------------------|

Chorus
"Are you hoping for a miracle..."
G|-------------------------|-----------------------|------------------------|
D|-------------------------|-----------------------|------------------------|
A|-14-14-14-14-14-14-14-14-|12-12-12-12-12-12-12-12|10-10-10-10-10-10-10-10-|
E|-------------------------|-----------------------|------------------------|

Chorus cont
G|--------------------------------------------------------------------------|
D|--------------------------------------------------------------------------|
A|-----------10-10-9-9------------------------------------------------------|
E|-10-10-9-9----------------------------------------------------------------|

Final 2 times through chorus
"Are you hoping for a miracle..."
G|-------------------------|-----------------------|------------------------|
D|-------------------------|-----------------------|------------------------|
A|-14-14-14-14-14-14-14-14-|16-16-16-16-16-16-16-16|17-17-17-17-17-17-17-17-|
E|-------------------------|-----------------------|------------------------|

Chorus cont
G|---------------------|----------------------------------------------------|
D|---------------------|----------------------------------------------------|
A|-----------10-10-9-9-|-14-------------------------------------------------|
E|-10-10-9-9-----------|----------------------------------------------------|

The song ends on B. Great tune. I would add that this is just the template bassline, you 
add as many fills as you like (I encourage it).
-|-
-|-
-|- =Bar lines
-|-
Comments