Bloc Party - Blue Light Chords & Tabs

 

Blue Light Chords & Tabs

Bloc Party Chords & Tabs

Version: 2 Type: Tab 0 ratings
1 star 2 stars 3 stars 4 stars 5 stars
comments

Blue Light Tab

Tuning:Standard
Blue light very good song by Bloc party this is my first tab i think it sounds like it
so have pity on me BUT for the most part ENJOY :)

after playing this 6 times play this right after the chords
e|--5--|--0--|--2--2|> e|--5-5-5-7-7-10|[ Tab from: http://www.guitartabs.cc/tabs/b/bloc_party/blue_light_tab_ver_2.html ]
Leading to solo get ready
e|-------------------------5-----5---5---5---5---5------------------|
b|----5-----------7b-5-3-5---3-5--3---3---3---3---3---7-7b-5--5-5-7b|
g|---7-7---6h7-6-7-----------------2---2---2---2---2---------7------|
d|--7---7-5---------------------------------------------------------|
a|------------------------------------------------------------------|
e|------------------------------------------------------------------|
SOLO
e|--3---3--5----3-5/7----2-3-2----0--|
b|----3------3--------3--------3-----|
g|-----------------------------------|x2
d|-----------------------------------|
a|-----------------------------------|
e|-----------------------------------|

e|--3-2---3-2---2-3--5-3---5-3---3-5/7--3--2-3-2-0--------|
b|------3-----3----------3-----3--------------------3-----|
g|--------------------------------------------------------|
d|--------------------------------------------------------|
a|--------------------------------------------------------|
e|--------------------------------------------------------|


e|--3-2---3-2---2-3--5-3---5-3---3-5/7-5-7/10-10--7/14----|
b|------3-----3----------3-----3--------------------------|
g|--------------------------------------------------------|
d|--------------------------------------------------------|
a|--------------------------------------------------------|
e|--------------------------------------------------------|

Played 3 more times till it ends
e|--5--|--0--|--2--2|> e|--5-5-5-7-7-10|
b|--5--|--3--|--3--3|  b|--------------|
g|--7--|--4--|--4--4|  g|--------------|
d|--7--|--5--|--5--5|  d|--------------|
a|-----|-----|------|  a|--------------|
e|-----|-----|------|  e|--------------|

HOPE U ENJOYED MY 1st TAB no email adress so just talk to me on UG
Comments