Bloc Party - Blue Light Chords & Tabs

 

Blue Light Chords & Tabs

Bloc Party Chords & Tabs

Version: 1 Type: Tab 0 ratings
1 star 2 stars 3 stars 4 stars 5 stars
comments

Blue Light Tab

'blue light'
by bloc party
from the album 'silent alarm'
enjoy!

|--3---3--5----3-5/7----2-3-2----0--|
|----3------3--------3--------3-----|
|-----------------------------------|x2
|-----------------------------------|
|-----------------------------------|
|-----------------------------------|
|-----------------------------------|
[ Tab from: http://www.guitartabs.cc/tabs/b/bloc_party/blue_light_tab.html ]
|--3-2---3-2---2-3--5-3---5-3---3-5/7--3--2-3-2-0--------|
|------3-----3----------3-----3--------------------3-----|
|--------------------------------------------------------|
|--------------------------------------------------------|
|--------------------------------------------------------|
||-------------------------------------------------------|


|--3-2---3-2---2-3--5-3---5-3---3-5/7-5-7/10-10--7/14----|
|------3-----3----------3-----3--------------------------|
|--------------------------------------------------------|
|--------------------------------------------------------|
|--------------------------------------------------------|
|--------------------------------------------------------|


E-mail:galeldar@hotmail.com
Comments