Bloc Party - Banquet Chords & Tabs

 

Banquet Chords & Tabs

Bloc Party Chords & Tabs

Version: 2 Type: Bass Tab 0 ratings
1 star 2 stars 3 stars 4 stars 5 stars
comments

Banquet Bass Tab

   
 BANQUET - Bloc Party

Tabbed By :tomo89 
e-mail: 

Tuning:normal

Intro x2
00:38
G|---------------------------------|
D|---------------------------------|
A|--1/4\1/6~-------1/4\1/6\\-------|
E|---------------------------------|

Chorus x2
1:04
G|--------------------------------------------------------------------------|
D|--------------------------------------------------------------------------|
A|------------------------------------------------------------9-8-----------|
E|--6-6-6-6-6-6-6-6-6-6-6-6-6-6-8-8-8-9-9-9-9-9-9-9-9-9-9-9-9----9----------|

G|--------------------------------------------------------------------------|
D|--------------------------------------------------------------------------|
A|--------------------------------------------------------------------------|
E|--6-6-6-6-6-6-6-6-6-6-6-6-6-6-8-8-8-4-4-4-4-4-4-4-4--777-999--------------|

Chorus-out x4
G|------------------------------|
D|------------------------------|
A|------------------4-6-4-3-4---|
E|--6--6--6--6--6--6------------|

Verse x4
G|------------------------------|
D|------------------------------|
A|------------------4-6-4-3-4---|
E|--6--6--6--6--6--6------------|

Chorus
G|--------------------------------------------------------------------------|
D|--------------------------------------------------------------------------|
A|------------------------------------------------------------9-8-----------|
E|--6-6-6-6-6-6-6-6-6-6-6-6-6-6-8-8-8-9-9-9-9-9-9-9-9-9-9-9-9----9----------|
[ Tab from: http://www.guitartabs.cc/tabs/b/bloc_party/banquet_btab_ver_2.html ]
G|--------------------------------------------------------------------------|
D|--------------------------------------------------------------------------|
A|--------------------------------------------------------------------------|
E|--6-6-6-6-6-6-6-6-6-6-6-6-6-6-8-8-8-4-4-4-4-4-4-4-4--777-999--------------|

G|--------------------------------------------------------------------------|
D|--------------------------------------------------------------------------|
A|------------------------------------------------------------9-8-----------|
E|--6-6-6-6-6-6-6-6-6-6-6-6-6-6-8-8-8-9-9-9-9-9-9-9-9-9-9-9-9-----9---------|

G|--------------------------------------------------------------------------|
D|--------------------------------------------------------------------------|
A|------------------------------3-3-3---------------------------------------|
E|--6-6-6-6-6-6-6-6-6-6-6-6-6-6-------2-2-2-2-2-2-2-2/5-5-5-5-5-5-5-5-------|

Bridge x2
2:34
G|--------------------------------------------------------------------------|
D|--------------------------------------------------------------------------|
A|--------------------------------------------------------------------------|
E|--2-2-2-2-2-2-2-2-1-1-1-1-1-1-1-1/6-6-6-6-6-6-6-6-6-6-6-6-6-6-6-----------|

Outro
2:46
G|-----------------------------------|
D|-----------------------------------|
A|-------------------4-6-4-3-4-------|
E|--6--6--6--6--6--6-----------------|

G|-----------------------------------|
D|--8-8-8-8-8-8-8-8-8-8-8-8-------6--|
A|--------------------------8-6-8----|
E|-----------------------------------|

| /  slide up
| \  slide down
| ~  vibrato

There you go, easy.
Comments