Blizzard - The Colour Green Chords & Tabs

 

The Colour Green Chords & Tabs

Blizzard Chords & Tabs

Version: 1 Type: Chords 0 ratings
1 star 2 stars 3 stars 4 stars 5 stars
comments

The Colour Green Chords

   
##################################################################################
# This file is the author's own work and represents their interpretation of the  #
# song. You may only use this file for private study, scholarship, or research.  #
##################################################################################

THE COLOUR GREEN
Blizzard
The Dark Realms

Chords:
G       320003
C       X32010
Bm      X24432
Em      022000
D       XX0232

*Intro Solo*
Note - You should listen closely during the intro solo as some of
the notes are harder to hear and the phrasing is hard to tabulate
without listening to the record.  On the original "Realms" CD, if
you balance out the left speaker and listen only to the right,
the solo is much easier to hear.  This guitar continues throughout
the verses.  I put in the chords from the other guitar so the solo
can be made out easily.
[ Tab from: http://www.guitartabs.cc/tabs/b/blizzard/the_colour_green_crd.html ]
G                               C
---------------------------------------------------------------|
---------------------------------------------------------------|
--------------------------/4----2----0---------0--2--0-----0---|
------------------------------------------2-------------2------|
---------------------------------------------------------------|
---------------------------------------------------------------|

G                                 C
---------------------------------------3---3h5---3-----|
----------------------3--3h5p3--3h5-----------------5--|
------0-----0--2--/4-----------------------------------|
0--2-----2---------------------------------------------|
-------------------------------------------------------|
-------------------------------------------------------|

G               Bm          C            Em
------------------------------------------------------|
3----3--5p3-----3-------------------------------------|
-------------4-----4--2-----0----0h2--0----------0h2--|
-------------------------2------------------0h2-------|
------------------------------------------------------|
------------------------------------------------------|

D
-----------------------------------------------------------| Lead continues
-----------------------------------------------------------| into verse.
0--------0--0-----------------------0----------------------|
---------------2--0h2p0--------0h2-------0h2p0-------0--2--|0---
--------------------------------------------------2--------|
-----------------------------------------------------------|

Comments