Blizzard - Riffs Of Illusion Chords & Tabs

 

Riffs Of Illusion Chords & Tabs

Blizzard Chords & Tabs

Version: 1 Type: Tab 0 ratings
1 star 2 stars 3 stars 4 stars 5 stars
comments

Riffs Of Illusion Tab

   
Riffs of Illusuion 1 - 5
Blizzard - Under the Sun (1994)

Part 1
|----------------------------------||==bend 1 step==||==bend 1 1/2==---|
|-----------------------------------------------------------|||--------|
|-------------------/--12^-----10--12^12^12^12^12^12^12^^---<<<--------|
|--10^---8/10-10^--\---------------------------------------------------|
|----------------------------------------------------------------------|
|----------------------------------------------------------------------|

|------------------------------------------------------------------|
|------------------------------------------------------------------|
|-7--7-7--7-7-7--7---------7--7-7--7-7-7--7---------7--------------|
|-7--7-7--7-7-7--7---------7--7-7--7-7-7--7---------7--------------|
|-5--5-5--5-5-5--5-----3p0-5--5-5--5-5-5--5-----3p0-5--------------|
|------------------3h5----------------------3h5--------------------|

|-----------------------------------------------------------------------|
|-----------------------------------------------------------------------|
|-----------------------------------------7--7-7--7-7-7--7--------------|
|---------------------5-------------------7--7-7--7-7-7--7--------------|
|-----3p0-5-----7-------7---7-------------5--5-5--5-5-5--5--------------|
|-3h5-------8-5---8-5-----8---8-5-8-5-8-5-------------------------------|

|--------------------------------------|
|--------------------------------------|
|--------------------------------------|
|----10-----9------------10-----9------|
|--10-----9------------10-----9--------|
|-8-----7-----6-------8-----7-----6----|

|------------------------------------------------------------------|
|------------------------------------------------------------------|
|------------------------------------------------------------------|
|------------------------------------------------------------------|
|-------------------------3-------------------------------3--------|
|-5--5-3-5--5-3-5-3-5-3-5----5--3-5--5-3-5--5-3-5-3-5-3-5---5--3-5-|

|------------------------------||--------------------------------------------|
|------------------------------||--------------------------------------------|
|-7/9--9--9\7--7--7/9--9--9-9--||-14p12--------14p12-------14p12-------------|
|-5/7--7--7\5--5--5/7--7--7-7--||-------12h14-------12h14-------12h14--------|
|-5/7--7--7\5--5--5/7--7--7-7--||-------------------------------------12-----|
|------------------------------||--------------------------------------------|

|-----------------------------------------------|
|-----------------------------------------------|
|-----9--7--6------------------9--7--6--7p6-----|
|-----7--5--4------------------7--5--4--5p4-----|
|-----7--5--4------------------7--5--4--5p4-----|
|-3/5---------------------3/5-------------------|

|------------------------------------------------------------------|
|------------------------------------------------------------------|
|-----9--7--6--7p6--9-9/10----10--9--7-/9--------------------------|
|-----7--5--4--5p4--7-7/8------8--7--5-/7--------------------------|
|-----7--5--4--5p4--7-7/8------8--7--5-/7--------------------------|
|-3/5--------------------------------------------------------------|

|------------------------------------|
|------------------------------------|
|-----5---8-7---7/8\7--7/8\7--5------|
|-7---5---8-7---7/8\7--7/8\7--5------|
|-7---3---6-5---5/6\5--5/6\5--3------|
|-5----------------------------------|

"lost in the wheels of confuision..."
|------------------------------------------------------------------|
|-8^-8^-8^-8-------8~-----------10--10^--10-8-10-------------------|
|------------9-7-9-------------------------------------------------|
|------------------------------------------------------------------|
|------------------------------------------------------------------|
|------------------------------------------------------------------|

(2nd part)
|------------------------------------------------------------------|
|------------------------------------------------------------------|
|------------------------------------------------------------------|
|-----8-----10----12----10----8-----7-----8-----10----8-----7------|
|--10----10----10----10----10-----8-----8-----8-----8-----8--------|
|------------------------------------------------------------------|

|------------------------------------------------------------------|
|------------------------------------------------------------------|
|-----------------3-------------------------------3----------------|
|-3-5--5-5-----3--3-3-5--5-5------5--3--3-3-----3-3-3--5--5-5------|
|-3-5--5-5-----3--1-3-5--5-5------5--3--3-3-----3-1-3--5--5-5------|
|-1-3--3-5-----1----1-3--3-3------3--1--1-1-----1---1--3--3-3------|

**2 guitars**
|------------------------------------------------------------------|
|------------------------------------------------------------------|
|-------------3-------------------------------3--------------------|
|-/5--5-5---3-3-3--5--5-5------/5--3--3-3-----3-3--5--5-5----------|
|-/5--5-5---3---3--5--5-5------/5--3--3-3-------3--5--5-5----------|
|------------------------------------------------------------------|

|-----------------------------------------------------------------------|
|-----------------------------------------------------------------------|
|-------------10--------------------------------------10----------------|
|-10^-10^-10^-8--10-10^--10^-10^------10^-10--10-10---8--10-10^-10^-10--|
|-10--10--10-----8--10---10--10-------10--8---8--8-------8--10--10--10--|
|-----------------------------------------------------------------------|

|-15---15--15--151815-151815----15---15--15------15---13---13--13---13--13--15---15--15---|
|-18^--18^-18^--------------18--18^--18^-18^-----18^--16^--16^-16^--16^-16^-18^--18^-18^--|
|-----------------------------------------------------------------------------------------|
|-----------------------------------------------------------------------------------------|
|-----------------------------------------------------------------------------------------|
|-----------------------------------------------------------------------------------------|

Part 2
|-------------------------------------------------------|
|---------------------------------------------7--7--7---|
|---------------------------------------------7--7--7---|
|--4-/-7--9---9-9---9---7---9---7-7---9\------7--7--7---|
|--2-/-5--7---7-7---7---5---7---7-7---7\------5--5--5---|
|-------------------------------------------------------|

well, ill meet you...
|-------------------------------------------------------|
|--------------------------------------------7--7--5--5-|
|--------------------------------------------7--7--6--6-|
|-------9--9--9-----9--9--9-----9--9---------7--7--7--7-|
|-0-----7--7--7--7--7--7--7--7--7--7------0--5--5--7--7-|
|--------------------------------------------------5--5-|

|-2----2---2--2---------------------------------------------|
|-3----3---3--3---------------------------------------------|
|-2----2---2--2---------------------------------------------|
|-0----0---0--0---------------------------------------------|
|----------------0---2h3p2p0--2h3p2p0--2p0-0----------------|
|-----------------------------------------------------------|

|-------2-----2----------2-----2----------5-----5----------5-----5----------|
|-----3---3-----3------3---3-----3------6---6-----6------6---6-----6--------|
|---2-------2--------2-------2--------5-------5--------5-------5------------|
|-0----------------0----------------0----------------0----------------------|
|---------------------------------------------------------------------------|
|---------------------------------------------------------------------------|

solo:
|------------------------------------------------------------------------|
|------------------------------------------------------------------------|
|----------------------------------------------------------7-7h9---------|
|-----5-5------------5-5--------------5-5--------------/9----------------|
|-5-7-----7------5-7-----7--------5-7-----7----5--h7p5-------------------|
|------------------------------------------------------------------------|

|-------------------------------------------------------------------------------|
|-------------------------------------------------------------------------------|
|-9^^^^^^^p7--9p7--------------------------------------------7------------------|
|-----------------9-9\7---5------------5-5----------------/9---9\7--5-7^-7-5----|
|----------------------------7-----5h7-----7-----5-h7p5----------------------7--|
|-------------------------------------------------------------------------------|

|-------------------------|
|-------------------------|
|-------------------------|
|-----5-5-----------------|
|-5h7-----7---------------|
|-------------6-5---------|

Part 3 is nothing but Keyboards and the guitar doing this:
|---------8---------------|
|---------8---------------|
|---------8p6-------------|
|-------------------------|
|-------------------------|
|-------------------------|

Part 4

  C       I use 4th finger while holding C chord
e|--------|-------|----------------|
B|5---------------|------------5---|
G|5-------7-5---5-|5-----------5---|
D|5-----------7---|------------5---|
A|3---------------|--3-6p5p3---3---|
E|----------------|----------------|

  C        I use 4th finger while holding C chord
e|---------|------|----------------|
B|5--------6-5-5--|5-----------5---|
G|5------5----7---|5-----------5---|
D|5*--------------|5-----------5---|
A|3*--------------|3---6p5p3---3---|
E|----------------|----------------|

  C5               Bb5   Eb5     F5
e|----------------|----------------|
B|----------------|----------------|
G|----------------|----------------|
D|5-----5-5-----5-|1-----8-8\7/8-10|
A|3-----3-3-----3-|3-----6-6\5/6-8-|
E|----------------|----------------| (X2 per verse line )

  A                G       E   G
e|----------------|----------------|
B|----------------|----------------|
G|----------------|----------------|
D|7-----7-7-----7-|5-----5-2---5---|
A|7-----7-7-----7-|5-----5-2---5---|
E|5-----5-5-----5-|3-----3-0---3---|

Part 5
Play this until infinity while following the Keyboard.
You must have the timing right to get it down pat and sound good
Listen to the record

Tiffany
|-------------------------------------------------------------------|
|-------------------------------------------------------------------|
|-------------------------------------------------------------------|
|-------------------------------------------------------------------|
|---2-1---3---2-----2-1---/5-4-3-2---2-1---3---2---3-2-1------------|
|-0-----0---------0-----0----------0-----0---------------2---3---0--|

Billy:
------------------------------------------------------------|
---------5\3-------------------5\3-------------------10\8---|
------------------------------------------------------------|
---3/5---5\3--------------3/5--5\3-------------8/10--10\8---|
---------------------------------------5--------------------|
------------------------------------6-----------------------|

-----------------------------------------------------------------|
--------5\3-----8------7------8------11\---7----------------6----|
------------------------------------------------------------5----|
---3/5--5\3-----8------7------8------11\---7----------------4----|
------------------------------------------------------------5----|
-----------------------------------------------------------------|

Riffs of Illusion  6 - 9
[ Tab from: http://www.guitartabs.cc/tabs/b/blizzard/riffs_of_illusion_tab.html ]
Part 6
Billy
|------------2------------------2-------|----------2-----------------2-------|
|--------3------3------------3-----3----|-------0-----0-----------0-----0----|
|----2--------------2-----2-----------2-|----0-----------0-----0-----------0-|
|-0--------------------0----------------|-0-----------------0----------------|
|---------------------------------------|------------------------------------|
|---------------------------------------|------------------------------------|
Tiffany
|---------------------------------------|------------------------------------|
|---------------------------------------|------------------------------------|
|---------------------------------------|------------------------------------|
|-4-5-7------------(7)-------------7/9--|------------------------------------|
|---------------------------------------|-7--------------(7)-----------------|
|---------------------------------------|------------------------------------|
Billy
|----------2-----------------2--------|----------2-----------------2-----3--|
|-------3-----3-----------3-----3-----|-------0-----0-----------0-----0-----|
|----2-----------2-----2-----------2--|----0-----------0-----0--------------|
|-0-----------------0-----------------|-0-----------------0-----------------|
|-------------------------------------|-------------------------------------|
|-------------------------------------|-------------------------------------|
Tiffany
|-------------------------------------|-------------------------------------|
|-------------------------------------|-------------------------------------|
|-------------------------------------|-------------------------------------|
|-4-5-7------------(7)-----------7/9--|---------------------------------7-6-|
|-------------------------------------|-7----------------(7)----------------|
|-------------------------------------|-------------------------------------|
Billy
|------------3------------------3-------|----------3-----------------3-------|
|--------0------0------------0-----0----|-------2-----2-----------2-----2----|
|----0--------------0-----0-----------0-|----2-----------2-----2-----------2-|
|-2--------------------2----------------|-2-----------------2----------------|
|---------------------------------------|------------------------------------|
|---------------------------------------|------------------------------------|
Tiffany
|---------------------------------------|------------------------------------|
|---------------------------------------|------------------------------------|
|---------------------------------------|------------------------------------|
|-5---------(5)--------7--------7/9-----|-7----------------(7)-----------7-6-|
|---------------------------------------|------------------------------------|
|---------------------------------------|------------------------------------|
Billy and Tiffany both together
|------0--------0--------0--------0-----|-------0-------0-------0-------0----|
|----0---0----0---0----0---0----0---0---|-----0---0---0---0---0---0---0---0--|
|---7-----7--7-----7--7-----7--7-----7--|----9-------9-------9-------9-------|
|--5--------5--------5--------5---------|---7-------7-------7-------7--------|
|---------------------------------------|--0-------0-------0-------0---------|
|---------------------------------------|------------------------------------|

Part 7
|-------0-----------0-----------0-----------0-----|
|-----6---6-------6---6-------6---6-------6---6---|
|---7-------7---7-------7---7-------7---7-------7-|
|-0-----------0-----------0-----------0-----------|
|-------------------------------------------------|
|-------------------------------------------------|

|-------0-----------0-----------0-----------0-----|
|-----8---8-------8---8-------8---8-------8---8---|
|---7-------7---7-------7---7-------7---7-------7-|
|-0-----------0-----------0-----------0-----------|
|-------------------------------------------------|
|-------------------------------------------------|

|-------8-----------8-----------8-----------8-----|
|-----6---6-------6---6-------6---6-------6---6---|
|---7-------7---7-------7---7-------7---7-------7-|
|-0-----------0-----------0-----------0-----------|
|-------------------------------------------------|
|-------------------------------------------------|

|--------------------------------------------------|
|-------0-----------0-----------0-----------0------|
|-----6---6-------4---4-------6---6-------4---4----|
|---7-------7---5-------5---7-------7---5-------5--|
|-0-----------0-----------0-----------0------------|
|--------------------------------------------------|

|------------------------------------------------------|
|----3--3-3-3-3--3-3--3-3-----3--3-3-3-3--3-3--3-3-----|
|----2--2-2-2-2--2-2--2-2-----2--2-2-2-2--2-2--2-2-----|
|----0--0-0-0-0--0-0--0-0-----0--0-0-0-0--0-0--0-0-----|
|-0------------------------0---------------------------|
|------------------------------------------------------|

|----------------------------------------------------------------------------|
|------------------------------------3------------------------------------3--|
|-2-2--5^5-2-5\2---------------------2------5^5-2-5\2---------------------2--|
|----------------7\5-5\3-2h3p0-2h3p0-0----------------7\5-5\3-2h3p0-2h3p0-0--|
|----------------------------------------------------------------------------|
|----------------------------------------------------------------------------|

|-----------------------------------------------------------|
|-3--3--3------------------3--3-3-3-------------------------|
|-2--2--2--2-2-2--2--5--4--2--2-2-2-------------------------|
|-0--0--0--2-2-2--2--5--4--0--0-0-0-------------------------|
|----------0-0-0--0--3--2-----------------------------------|
|-----------------------------------------------------------|

of all the things i value most...
|--------2--------------5-----------4-----------3-----------------|
|------3---3----------6---6-------5---5-------4---4---------------|
|----2-------2------5-------5---4-------4---3-------3-------------|
|-0---------------0-----------0-----------0-----------------------|
|-----------------------------------------------------------------|
|-----------------------------------------------------------------|

|--------2--------------5-----------4-----------3-----------------|
|------3---3----------6---6-------5---5-------4---4---------------|
|----2-------2------5-------5---4-------4---3-------3-------------|
|-0---------------0-----------0-----------0-----------------------|
|-----------------------------------------------------------------|
|-----------------------------------------------------------------|

Part 8 is a excellent drum solo, The Guitar part is as such:
|--(increase volume)---------------------------------------|
|----------------------------------------------------------|
|--3~~~~----------------3~~~~------------------------------|
|---------3h5-3----------------3h5-3-----------------------|
|---------------3/5------------------3/5-------------------|
|-------------------3--------------------3/-\--------------|

|----------------------------------------------------------|
|----------------------------------------------------------|
|----------------------------------------------------------|
|----------------------------------------------------------|
|-----3-3h4p3-3h4p3-3h4p3---------3-3h4p3-3h4p3-3h4p3------|
|-3-6---------------------6-3-3-6---------------------6-3--|

|----------------------------------------------------------|
|----------------------------------------------------------|
|----------------------------------------------------------|
|----------------------------------------------------------|
|-----3-4-3h4p3---------------3-4-3h4p3--------------------|
|-3-6-----------6-3-------3-6-----------6-3----------------|

|---------------------------------------------------15-15--15--15--|
|------------------------------------------------------18^-18^-18^-|
|------------------------------------------------17^---------------|
|----------------8-10-12---------15-17^-17---17--------------------|
|-----3-4-5-8-10-----------15/17-----------------------------------|
|-3-6--------------------------------------------------------------|

Solo:
|----------------------------------------------------------|
|----------------------------------------------------------|
|----------------------------------------------------------|
|-7h8-7~~--7h8-10-7h8p7-7------------7h8-10-7--7-----------|
|-------------------------8p7-7h8-10-------------8p7-------|
|----------------------------------------------------------|

|-------------------------------------------------------------|
|-------------------------------------------------------------|
|-------------------------------------------------------------|
|------------------------------7--8-10-7h8p7-7----------------|
|-7-8-7h8p7-7h8p7-7h8p7-7h8h10-----------------8p7-7h8p7----7-|
|--------------------------------------------------------10---|

|----------------------------------------------------------|
|----------------------------------------------------------|
|----------------------------------------------------------|
|------7-10-7-7h8p7-7---------------7-8-10/12-10-8-8p7-----|
|-8-10----------------8p7----7-8-10------------------------|
|-------------------------10-------------------------------|

|----------------------------------------------------------|
|----------------------------------------------------------|
|----------------------------------------------------------|
|-7h8p7-7------------7-------------------------------------|
|---------8p7-7-8-10---8-8/10-10-10------------------------|
|----------------------------------------------------------|

Part 9
|--------3---------------3--------------3----------------3----------|
|----3h5---5-5-5-----3h5---5-5-5----3h5--------------3h5------------|
|--4---------------4--------------4-------432------4-------432------|
|---------------------------------------------2-2---------------2-2-|
|-------------------------------------------------------------------|
|-------------------------------------------------------------------|

Solo:
|----------------------------------------------------------|
|------------------------------------------8~--------------|
|------------------------------9-9---9-7-9----9-7----------|
|-7^~~~~---9\7--5-7-5-7-5--7/9-----------------------------|
|----------------------------------------------------------|
|----------------------------------------------------------|
|                                                          |
|----------------------------------------------------------|
|--------------------------------------8^------------------|
|------------------------------9-9-9-9-------9-7-----------|
|-7^~~~~---9\7--5-7-5-7-5--7/9-----------------------------|
|----------------------------------------------------------|
|----------------------------------------------------------|

|----------------------------------------------------------|
|---------------------------------------------8------------|
|-----7-------------------------------9-9-------9----------|
|-7/9---9\7--7-5-7^~~~~--7-5-7-5--7h9-----7h9--------------|
|----------------------------------------------------------|
|----------------------------------------------------------|

|----------------------|
|----------------------|
|----------------------|
|-9\7-5-7-5-7~~-5------|
|----------------------|
|----------------------|

|----------------------------------------|
|----------------------------------------|
|--7--9--9--7--9--9---7-6-7-6-7-6--7-9-9-|
|--7--9--9--7--9--9---7-6-7-6-7-6--7-9-9-|
|--5--7--7--5--7--7---5-4-5-4-5-4--5-7-7-|
|----------------------------------------|

    "feel so happy since I became his girl..."
|----------------------------------------|
|----------------------------------------|
|--7--9--9--7--9--9---7-7-7-7-7-7--7-9-9-|
|--7--9--9--7--9--9---7-7-7-7-7-7--7-9-9-|
|--5--7--7--5--7--7---5-5-5-5-5-5--5-7-7-|
|----------------------------------------|

"some1 to love me..."
|---------------|---------------|
|---------------|---------------|
|---------------|---------------|
|-7----------7--|-9-------------|
|-7----------7--|-9-------------|
|-5----------5--|-7-------------|

"Lovly Billy...Making love all night long"
|---0-----3-----0-----3-----------|
|-----0-----0-----0-----0---------|
|---------------------------------|
|-2-----2-----2-----2-----2-0-1-2-|
|---------------------------------|
|---------------------------------|

"I dont want to leave you..." Anymore...no more"
|------------|------------|--------------------------------|
|------------|------------|--------------------------------|
|-5----------|-4----------|--------------------------------|
|-5----------|-4----------|-2--2-2---x-x-x-7-7-7--7-7\-----|
|-3----------|-2----------|-2--2-2---x-x-x-7-7-7--7-7\-----|
|------------|------------|-0--0-0---x-x-x-5-5-5--5-5\-----|

|------------------------------------------------|
|------------------------------------------------|
|------------7p5---7--5-------454-0---0-4-5\4----|
|----7-7p5-7-7p5---7--5-------454-0-5-0-4-5\4----|
|----7-7p5-7-----7------7-----------5------------|
|--0----------------------0-------------------0--|
this is the little thing at the end
Comments