Blizzard - Psy Sics Chords & Tabs

 

Psy Sics Chords & Tabs

Blizzard Chords & Tabs

Version: 2 Type: Tab 0 ratings
1 star 2 stars 3 stars 4 stars 5 stars
comments

Psy Sics Tab

   
PSY SICS
Blizzard

|-------------------------||                               |-------------------------||
|-------------------------||                               |-------------------------||
|-(7)/9--------7/9-9\-----||                               |-(7)/9--------7/9-9\-----||
|-(7)/9--------7/9-9\-----||                               |-(7)/9--------7/9-9\-----||
|-(5)/7--------5/7-7\5~~--||                               |-(5)/7--------5/7-7\5~~--||
|-------------------------||                               |-------------------------||
  Emadd9                        A                 Asus4 A    Emadd9
E--0----------|---------------|-------------|-------------|----0--------|
B--0----------|---------0-----|--------2----|-----3---2-2-|-----0-------|
G--0----------|------------0--|------2------|-----------2-|------0------|
D--4----------|---------------|----2--------|-------------|-------4-----|
A--2----------|---------------|-0-----------|---0---------|-------2-----|
E--0----------|-----0---------|-------------|-------------|-0-----0-----|

                                            |--------------------------||
                                            |--------------------------||
                                            |-(7)/9--------7/9-9\------||
                                            |-(7)/9--------7/9-9\------||
                                            |-(5)/7--------5/7-7\5~~---||
                                            |--------------------------||
                   A           A7sus4  A7     Emadd9
E-----------------|-----------|-------------|-12----------|------------------------------------------||
B-----------------|-----------|-------------|-12----------|-------12/--------------------------------||
G-cont sim ad lib-|-----------|-------------|-------------|-------12/--------------------------------||
D---on chords-----|-----------|-------------|-slide gt----|------------------------------------------||
A-----------------|-----------|-------------|-------------|------------------------------------------||
E-----------------|-----------|-------------|-------------|------------------------------------------||
                                                                        |----------------------------||
                            |------------------------------------------------------------------------||
                            |-(7)/9--------7/9-9\----------------------------------------------------||
                            |-(7)/9--------7/9-9\----------------------------------------------------||
                            |-(5)/7--------5/7-7\5~~-------------------------------------------------||
                            |------------------------------------------------------------------------||
  A           Asus4   A      Emadd9                     A       Asus4 A
E------------|--------------|-12---------|------12/---|/14-----|---------|
B-/14--------|--------------|-12---------|------12/---|/14-----|---------|
G-/14--------|--------------|------------|------------|--------|---------|
D------------|--------------|------------|------------|--------|---------|
A------------|--------------|------------|------------|--------|---------|
E------------|--------------|------------|------------|--------|---------|
[ Tab from: http://www.guitartabs.cc/tabs/b/blizzard/psy_sics_tab_ver_2.html ]
|-------------------------||                               |-------------------------||
|-------------------------||                               |-------------------------||
|-(7)/9--------7/9-9\-----||                               |-(7)/9--------7/9-9\-----||
|-(7)/9--------7/9-9\-----||                               |-(7)/9--------7/9-9\-----||
|-(5)/7--------5/7-7\5~~--||                               |-(5)/7--------5/7-7\5~~--||
|-------------------------||                               |-------------------------||
  Emadd9                      A                        Emadd9
E-14----------|---------10/-|/12-------|--------------|----------|-------|
B-12----------|-----12/-----|/14-------|--------------|-12-------|---12/-|
G-12----------|-----12/-----|/14-------|--------------|-12-------|---12/-|
D-------------|-------------|----------|--------------|----------|-------|
A-(2 sl gts)--|-------------|----------|--------------|----------|-------|
E-------------|-------------|----------|--------------|----------|-------|

  A                        Emadd9                     A         Asus4 A
E-----------|-------------|-14---------|--------10--|-10/-12---|---------|
B-/14-------|-------------|-12---------|-----12/----|/14-------|---------|
G-/14-------|-------------|-12---------|-----12/----|/14-------|---------|
D-----------|-------------|------------|------------|----------|---------|
A-----------|-------------|------------|------------|----------|---------|
E-----------|-------------|------------|------------|----------|---------|

|-------------------------||                               |-------------------------||
|-------------------------||                               |-------------------------||
|-(7)/9--------7/9-9\-----||                               |-(7)/9--------7/9-9\-----||
|-(7)/9--------7/9-9\-----||                               |-(7)/9--------7/9-9\-----||
|-(5)/7--------5/7-7\5~~--||                               |-(5)/7--------5/7-7\5~~--||
|-------------------------||                               |-------------------------||
  Emadd9                   A     Asus4  A          Cmaj7
E-12---------|-----------|------------|-----------|----------|-----------|
B-12------12-|-------12/-|/14---------|-----------|-12-------|----/13\12-|
G------------|-------12/-|/14---------|-----------|----------|-----------|
D------------|-----------|------------|-----------|----------|-----------|
A------------|-----------|------------|-----------|----------|-----------|
E------------|-----------|------------|-----------|----------|-----------|

  Bm7                    Fmaj7                      G         D7#9  D7b9
E-----------|----------|--------------|-----------|----------|-----------|
B-12--------|----------|-12/13\----12-|-10--------|-8--------|-6----4----|
G-----------|----------|--------------|-----------|----------|-----------|
D-----------|----------|--------------|-----------|----------|-----------|
A-----------|----------|--------------|-----------|----------|-----------|
E-----------|----------|--------------|-----------|----------|-----------|

                    G                  D7#9      D7b9      Em
E-----------------|-------------------|------------------|--------------||
B-----------------|-12-----------\----|------------------|--------------||
G-----------------|-12-----------\----|-10\------\8-----/|/9------------||
D-----------------|-------------------|------------------|--------------||
A-----------------|-------------------|------------------|--------------||
E-----------------|-------------------|------------------|--------------||

             1          2          3
|----------||---------||--------||--12------||
|----------||---------||--------||--12------||
|----------||-4p2p0---||--------||--12------||
|-12--14---||-------2-||-0202020||----------||
|-12--14---||---------||--------||----------||
|-10--12---||---------||--------||----------||
Comments