Blizzard - I Love The Moon Chords & Tabs

 

I Love The Moon Chords & Tabs

Blizzard Chords & Tabs

Version: 1 Type: Tab 0 ratings
1 star 2 stars 3 stars 4 stars 5 stars
comments

I Love The Moon Tab

   
##################################################################################
# This file is the author's own work and represents their interpretation of the  #
# song. You may only use this file for private study, scholarship, or research.  #
##################################################################################

I Love the Moon
Blizzard
Atoms In The Sun

b=bend
r=release
/=slide
h=hammer


Intro:

Guitar 1
e|-15----|-15-14-----------------14-15--|--15-14-----------------14-12--|
B|-------|--------15-------15-15--------|---------15-------15-15--------|
G|-------|-----------14-14--------------|------------14-14--------------|
D|-------|------------------------------|-------------------------------|
A|-------|------------------------------|-------------------------------|
E|-------|------------------------------|-------------------------------|

GuitarII
e|-------|------------------------------|
B|-------|------------------------------|
G|-------|------------------------------|
D|-------|------------------5~~---------|
A|-------|------------------------------|
E|-------|------------------------------|




e|--------------------------------------------------------|
B|--------------------------------------12-----------12---|
G|-----11-12-----11-12-----11-12-----11--------11-12------|
D|--14--------14--------14--------14--------14------------| x 3
A|--------------------------------------------------------|
E|--------------------------------------------------------|


then


e|----------------------------------------------------------|
B|--------------------------------------12-----------12-13--|
G|-----11-12-----11-12-----11-12-----11--------11-12--------|
D|--14--------14--------14--------14--------14--------------|
A|----------------------------------------------------------|
E|----------------------------------------------------------|


Now for the Verse...


play this a few times under the lyrics

e|---------------------12--------------------12--|
B|--------------------------------12-------------|
G|-----12-11-------11---------11----------12-----|
D|--14----------14---------14----------14--------|
A|-----------------------------------------------|
E|-----------------------------------------------|

then this riff comes in

e|------------------|
B|------------------|
G|---------11-12-9--|
D|--9-12-9----------|
A|------------------|
E|------------------|

Then the solo comes in after the chorus...
[ Tab from: http://www.guitartabs.cc/tabs/b/blizzard/i_love_the_moon_tab.html ]
e|---------------------------------------|
B|--15-13-12----12-----------------------|
G|-----------14----(14)-14b16r14---------|
D|--------------------------------12-----| x 2
A|---------------------------------------|
E|---------------------------------------|
                    ^ the (14) is only played the first time

e|--------------------------|---------------------------------------|
B|--------------------------|----13---12-13-12----12----------------|
G|-----14b16-14b16-14b16r14-|------------------14----14b16r14-------|
D|--12----------------------|-12------------------------------12-14-|
A|--------------------------|---------------------------------------|
E|--------------------------|---------------------------------------|

e|--------------------------------|--17b19-17b19--19r17--15-15-17----|
B|---------------------15b17-15---|-------------------------------17-|
G|-----14b16r14-------------------|----------------------------------|
D|--12----------12-14-------------|----------------------------------|
A|--------------------------------|----------------------------------|
E|--------------------------------|----------------------------------|

e|--17b19-17b19-19r17----18b20-17b19-15-17----|------15----|
B|--------------------17-------------------17-|-15------17-|
G|--------------------------------------------|------------|
D|--------------------------------------------|------------|
A|--------------------------------------------|------------|
E|--------------------------------------------|------------|


Outro Solo:

e|--17b19-17-15----15---|-14--12-12---------------------|----------------|
B|--------------17------|-----------15-15-17b19r17-15---|-12-------------|
G|----------------------|-------------------------------|-------------12-|
D|----------------------|-------------------------------|-----12---14----|
A|----------------------|-------------------------------|----------------|
E|----------------------|-------------------------------|----------------|

e|--------------------------|-------------------------|--19r17-15-18b20-17b19-15-17----|
B|--------------------------|----------------------15-|-----------------------------17-|
G|----14b16-14b16-14b16r14--|----12----12h14-14/16----|--------------------------------|
D|-14-----------------------|-14----14----------------|--------------------------------|
A|--------------------------|-------------------------|--------------------------------|
E|--------------------------|-------------------------|--------------------------------|

e|--------17b19-19-19-19-19r17-15-15-|
B|--15-15----------------------------|
G|-----------------------------------|
D|-----------------------------------| and fade
A|-----------------------------------|
E|-----------------------------------|
Comments