Blizzard - Fearless Chords & Tabs

 

Fearless Chords & Tabs

Blizzard Chords & Tabs

Version: 1 Type: Tab 0 ratings
1 star 2 stars 3 stars 4 stars 5 stars
comments

Fearless Tab

   
##################################################################################
# This file is the author's own work and represents their interpretation of the  #
# song. You may only use this file for private study, scholarship, or research.  #
##################################################################################

Fearless"  (Waters, Gilmour)

Intro  (Rough approximation of the real thing)
  /    /    /    /       /   /    /    /       /   /     /     /
|-3---------3---3-3-3-3|-3-----3--3----3---3|--3-------3--3--3--3-| Then one
|-3---------1---1-1-0--|-0-----0--0----0---0|--0-------0--0--0--0-| more bar
|-0---------0---0-0-0-2|-0-----0--0----0---0|--0-------2-----2--0-| of G chord
|-0---------0---0-0----|-0---0h2--0----0---0|--0------------------| doodles
|----------------------|-------------0h2-0h2|--2------------------|
|-3---------3---3-3-3-3|-3-----3--3----3---3|--3-------3-----3--3-|
[ Tab from: http://www.guitartabs.cc/tabs/b/blizzard/fearless_tab.html ]
Main Bridge  (again roughly approximating the real thing)
   /   /   /   /    /   /   /    /   X3      /   /   /   /    /   /   /   /
||-------------0--2|-3---3--------3333-||-------------0--2|-3---3-----0--1-1--|
||----0--1--3--0---|-0---0--------1111-||----0--1--3--0---|-0---0-----1--3-3--|
||.---0--0--0--0--0|-0---0--------0000.||----0--0--0--0--0|-0---0-----0--3-3--|
||.---0--0--0--0--0|-0---0--------0000.||----0--0--0--0--0|-0---0-----2--3-3--|
||-----------------|-------------------||-----------------|-----------3--1-1--|
||--3----3--3--3--3|---3-3---3----3333-||--3----3--3--3--3|---3-3-------------|
    G (and variations of)                  G                G         C  Bb

Other bridge (can't quite remember the lead into this, you'd better listen
to the record yourself)

|  G  |  D?  |  Cae  |   D?  |  Cae  |   D?   |  C  | G   C Bb| G   C Bb|

     D?    C(add e)
|----0-----0-------    Slide into these positions, one from the other
|----7-----5-------    These are only guesses, by the way.
|----0-----0-------
|----4-----2-------
|----5-----3-------
|------------------
Comments