Blizzard - Childhood's Fantasies Chords & Tabs

 

Childhood's Fantasies Chords & Tabs

Blizzard Chords & Tabs

Version: 1 Type: Tab 0 ratings
1 star 2 stars 3 stars 4 stars 5 stars
comments

Childhood's Fantasies Tab

   
##################################################################################
# This file is the author's own work and represents their interpretation of the  #
# song. You may only use this file for private study, scholarship, or research.  #
##################################################################################

CHILDHOOD'S FANTASIES
Blizzard     (Arnold)

Intro (Fade In)
  Em   Am      Em      Am
e-|----------------|----------------|-----------------|----------------|
B-|----------------|----------------|-----------------|----------------|
G-|----------------|---2-------2p0--|-----------------|---2-------2p0--|
D-|----2-----2p0---|---2-------2p0--|----2-----2p0----|---2-------2p0--|
A-|----2-----------|---0------------|----2------------|---0-------0----|
E-|-0-----0------3h|5-----3h5-------|-0-----0-------3h|5-----3h5-------|

  Am   G   D Em         G   D      Am      Em
e-|----------------|----------------|-----------------|----------------|
B-|----------------|----------------|------3---3-3----|----------------|
G-|----2------2p0--|----------------|------2---2-2----|-2--2-----------|
D-|----2------2p0--|-5-0-2------2-2-|-5--5-0---0-0----|-2--2--2---2-2--|
A-|-0--------------|-5-0-2------2-2-|-5--5------------|-0--0--2---2-2--|
E-|-------3h5------|-3---0------0-0-|-3--3------------|-------0---0-0--|

Verses:
  Em   Am    Em       Am
e-|----------------|----------------|-----------------|----------------|
B-|----------------|----------------|-----------------|----------------|
G-|----------------|---2-------2p0--|-----------------|---2-------2p0--|
D-|----2-----2p0---|---2-------2p0--|----2-----2p0----|---2-------2p0--|
A-|----2-----------|---0------------|----2------------|---0-------0----|
E-|-0-----0------3h|5-----3h5-------|-0-----0-------3h|5-----3h5-------|

  Em   Am    Am      G   D Em
e-|----------------|----------------|-----------------|----------------|
B-|----------------|----------------|-----------------|----------------|
G-|----------------|---2-------2p0--|----2-------2p0--|----------------|
D-|----2-----2p0---|---2-------2p0--|----2-------2p0--|-5-0-2------2-2-|
A-|----2-----------|---0------------|-0----------0----|-5-0-2------2-2-|
E-|-0-----0------3h|5-----3h5-------|-------3h5-------|-3---0------0-0-|
[ Tab from: http://www.guitartabs.cc/tabs/b/blizzard/childhoods_fantasies_tab.html ]
    G D      Am    Em
e-|-----------------|----------------|
B-|------3---3-3----|----------------|
G-|------2---2-2----|-2--2-----------|
D-|-5--5-0---0-0----|-2--2--2---2-2--|
A-|-5--5------------|-0--0--2---2-2--|
E-|-3--3------------|-------0---0-0--|


SOLO:
     full     full              full      sl        rev.full   vib.
E 12-15^---15--------------------------------------------------------
B ------------15^--15-15-15-15---------------------------------------
G ------------------------------14-14^--------12-14-(^)14-12-14------
D ----------------------------------------/14--------------------12^^
A -------------------------------------------------------------------
E -------------------------------------------------------------------

  full         vib.        full                      full
E --------------------------------------------12---------
B 13^--------------------------------------12*----12-15^-
G ------14^12-----------12-14^-14-12---------------------
D ------------14^^^--14--------------14------------------
A -------------------------------------------------------
E -------------------------------------------------------
                                             * let ring

  full+1/2                       full
E --------------------15---------17^--17-15-17-15---
B 17^---15-17-----15^*---15----17----------------17-
G --------------------------------------------------
D --------------------------------------------------
A --------------------------------------------------
E --------------------------------------------------
                     *hold bend and let ring

  full  full               sl       full               full
E 17^---17^-17-15-17---15-12\------------15-12---------------
B -------------------------------15-15^----------15-15-15----
G --------(0)*-------------------------------------------14^-
D -----------------------------------------------------------
A -----------------------------------------------------------
E -----------------------------------------------------------
             * open G accidentally hit when releasing bend


  full      full                  
E 17^--17-----------------------------------------
B ----------17^--15-17----------------------------
G ----------------------------------14^-14-12-----
D -------------------------------------------14---
A ------------------------------------------------
E ------------------------------------------------

Comments