Blizzard - Biding My Time Chords & Tabs

 

Biding My Time Chords & Tabs

Blizzard Chords & Tabs

Version: 1 Type: Tab 0 ratings
1 star 2 stars 3 stars 4 stars 5 stars
comments

Biding My Time Tab

   
BIDING MY TIME
Blizzard
(Organic Lifeforms)

Guitar I:

e-|-8----8---8-----8s13-13-12-12-11-11-10-10s--||
B-|-9-------------------------------------------||
G-|-10------------------------------------------||  REPEAT
D-|-10------------------------------------------||
A-|---------------------------------------------||
E-|---------------------------------------------||

e-|-------------------------------------------|
B-|----------8--9-8---------------------------|
G-|-------------8-7----7-8--7-8--7-8--7-8-----|
D-|---------9*--9-8----6-7--6-7--6-7--6-7-----|
A-|-8-9-10*------------7-8--7-8--7-8--7-8-----|
E-|-------------------------------------------|
          *Let ring

Guitar II:
E :------------------------|0-----------------------|
B :0---------0-------------|------4-----3-----2-----|
G :0---0-----0-----0-----0-|----0-----0-----0-------|
D :2---------2-------------|------------------------|
A :------------------------|------------------0---2-|
E :------0-----------0-----|0-----2-----3-----------|

E :------0-----------------|0-----------------------|
B :0---------0-------------|------4-----3-----2-----|
G :----0-----------0-----0-|----0-----0-----0-------|
D :------------------2-----|------------------------|
A :------------------------|------------------0---2-|
E :0-----0-----------------|0-----2-----3-----------|

E :------------------------|------------------------|
B :0---------------0-------|------------------------|
G :----0-------------0-----|------2---0-------------|
D :----------2-------------|------1---1-----4-------|
A :------0-2---------------|----2-----------2-------|
E :0-----------0-------0-1-|2-----2---2-----2-------|

E :------------------------|------------------------|
B :5-----5-----4--5------4-|5---5-4---5-----5-------|
G :7-----7-----6--7------6-|7---7-6---7-------------|
D :6-----6-----5--6------5-|6---6-5---6-----------5-|
A :7-----7-----6--7------6-|7---7-6---7-------7-----|
E :------------------------|------------------------|
[ Tab from: http://www.guitartabs.cc/tabs/b/blizzard/biding_my_time_tab.html ]
Verse 1:
E :------------------------|0-----------------------|
B :0---------0-------------|------4-----3-----2-----|
G :0---0-----0-----0-----0-|----0-----0-----0-------|
D :----------2-------------|------------------------|
A :------------------------|------------------0---2-|
E :0-----0-----------0-----|0-----2-----3-----------|
   wasting my time...
E :----------0-------------|0-----------------------|
B :0-----------0-----------|------4-----3-----2-----|
G :----0-----------0-------|----0-----0-----0-------|
D :----------------------2-|------------------------|
A :------0-2---------0-2---|------------------0---2-|
E :0-----------0-----------|0-----2-----3-----------|
   resting my mind...
E :----------0-------------|------------------------|
B :0-----------0-----------|------------------------|
G :----0-----------0-------|------2---0-------------|
D :------------------------|------1---1-----4-------|
A :------0-2---------2-----|----2-----------2-------|
E :0-----------0-------0-1-|2-----2---2-----2-------|
  and I'll never pine for the sad days and the bad days
E :------------------------|------------------------|
B :5-----5-----4--5------4-|5---5-4---5-----5-------|
G :7-----7-----6--7------6-|7---7-6---7-------------|
D :6-----6-----5--6------5-|6---6-5---6-----------5-|
A :7-----7-----6--7------6-|7---7-6---7-------7-----|
E :------------------------|------------------------|
   when we was working from 9  to 5.
Verse 2:
E :------------------------|0-----------------------|
B :0---------0-------------|------4-----3-----2-----|
G :0---0-----0-----0-----0-|----0-----0-----0-------|
D :----------2-------------|------------------------|
A :------------------------|------------------0---2-|
E :0-----0-----------0-----|0-----2-----3-----------|
   and if you don't mind...
E :----------0-------------|0-----------------------|
B :0-----------0-----------|------4-----3-----2-----|
G :----0-----------0-------|----0-----0-----0-------|
D :----------------------2-|------------------------|
A :------0-2---------0-2---|------------------0---2-|
E :0-----------0-----------|0-----2-----3-----------|
   I'll spend my time...
E :----------0-------------|------------------------|
B :0-----------0-----------|------------------------|
G :----0-----------0-------|------2---0-------------|
D :------------------------|------1---1-----4-------|
A :------0-2---------2-----|----2-----------2-------|
E :0-----------0-------0-1-|2-----2---2-----2-------|
   here by the fireside in the warm light of the love in her
E :------------------------|------------------------|
B :8-8-8-8-8-8-8-8-8-8-8-8-|3---3-3---3-3---3-3---3-|
G :7-7-7-7-7-7-7-7-7-7-7-7-|2---2-2---2-2---2-2---2-|
D :6-6-6-6-6-6-6-6-6-6-6-6-|1---1-1---1-1---1-1---1-|
A :7-7-7-7-7-7-7-7-7-7-7-7-|2---2-2---2-2---2-2---2-|
E :------------------------|------------------------|
   eyes!

Bridge:
E :----------0-------------|0-----------------------|
B :0-----------0-----------|--0---4---4-3---3-2-----|
G :----0-----------0-----0-|----0---0-----0-----0---|
D :------------------------|------------------------|
A :------0-2---------0-2---|------------------0---2-|
E :0-----------0-----------|0-----2-----3-----------|

E :------------0-----------|0-----------------------|
B :0---------------0-------|--0---4---4-3---3-2-----|
G :--0-------0-------0-----|----0---0-----0-----0---|
D :--------2-----------2---|------------------------|
A :----0-2---------------2-|------------------0---2-|
E :0-----------------------|0-----2-----3-----------|

E :------------0-----------|------------------------|
B :0---------------0-------|------------------------|
G :----0-----0-------0-----|------2---0-------------|
D :------------------------|------1---1-----4-------|
A :------0-2---------------|----2-----------2-------|
E :0-------------------0-1-|2-----2---2-----2-------|

E :------------------------|------------------------|
B :5-----5-----4--5------4-|5---5-4---5-----5-------|
G :7-----7-----6--7------6-|7---7-6---7-------------|
D :6-----6-----5--6------5-|6---6-5---6-----------5-|
A :7-----7-----6--7------6-|7---7-6---7-------7-----|
E :------------------------|------------------------|

E :------------------------|0-----------------------|
B :0---------0-----------0-|--0---4-----3---3-2-----|
G :0---0-----------0-------|----0-----0---0---------|
D :------------------------|------------------------|
A :------0---2-------------|------------------0---2-|
E :0---------0-------0-----|0-----2-----3-----------|
   and if you don't mind...
E :------0-----------------|0-----------------------|
B :0---------0-------------|--0---4-----3---3-2-----|
G :----0-----------0-----0-|----0-----0---0---------|
D :------------------------|------------------------|
A :------------------0-2---|------------------0---2-|
E :0-----0-----------------|0-----2-----3-----------|
   I'll spend my time...
E :------------0-----------|------------------------|
B :0---------------0-------|------------------------|
G :----0-----0-------0-----|------2---0-------------|
D :------------------------|------1---1-----4-------|
A :------0-2---------------|----2-----------2-------|
E :0-------------------0-1-|2-----2---2-----2-------|
   here by the fireside in the warm light of the love in her
E :------------------------|------------------------|
B :------------3-----3-----|4---5-6---5-------------|
G :1-----1-----2-----2-----|6---7-8---7-------------|
D :2-----2-----1-----1-----|5---6-7---6-------------|
A :2-----2-----2-----2-----|6---7-8---7-------------|
E :0-----0-----------------|------------0-----------|
   eyes!

something not on the tab: Slide from D#7 to E7 on links.
Link 3, bridge & Coda are my own ideas, as they replace solo parts,
being not able to play them alone ('cuz i'm alone, how cruel is life!
but she will be mine, oh yes, she will be mine!)

NoChords bars are the little chromatic thing:
        ³E   Eb  D   C#  ³  (play any note of the Em chord on counterpoints)
        ³E   F#  G   A  B³  (both E, G & B do the job, I mainly use G)
        (1   2   3   4  &)
Comments