Blitzkid - Theyre All Dead Chords & Tabs

 

Theyre All Dead Chords & Tabs

Blitzkid Chords & Tabs

Version: 1 Type: Bass Tab 0 ratings
1 star 2 stars 3 stars 4 stars 5 stars
comments

Theyre All Dead Bass Tab

Hey all, Writing this one down, haven't quite finished. But will probably finish in the 
next few days. Updates or whatever just email me on 'Glad-rags-and-body-bags@hotmail.com'

It's not perfect i don't think, But it's close.



Intro

g|--------------------------------------------|
d|--------------------------------------------|
a|--------45-777666----------45777-67-99------|
e|-4444-67-----------4444-67------------------|
                                                x2
[ Tab from: http://www.guitartabs.cc/tabs/b/blitzkid/theyre_all_dead_btab.html ]
g|-----------------------------------------------|
d|-----------------------------------------------|
a|--------45-777-555-777-333-777-88888-----------|
e|-4444-67---------------------------------------|





g|--------------------------------------------|
d|--------------------------------------------|x2
a|--------------------------------------------|
e|--44444---77777---00000---2223222-----------|


Verse


g|--------------------------------------------|
d|--------------------------------------------|x3
a|------------------------------7532----------|
e|--4444444-7777777-0000000-235---------------|

g|--------------------------------------------|
d|--------------------------------------------|x1
a|--------------------------------------------|
e|--4444444-7777777-0000000-222220------------|
Comments