Blitzkid - Love Like Blood Chords & Tabs

 

Love Like Blood Chords & Tabs

Blitzkid Chords & Tabs

Version: 1 Type: Tab 0 ratings
1 star 2 stars 3 stars 4 stars 5 stars
comments

Love Like Blood Tab

LOVE LIKE BLOOD, by Blitzkid.
From the album "Trace of a Stranger"
Tabbed by Jake Strange.
E-mail: jakestrange@chaosmagic.com
I think the band uses a different tuning, but I'm tabbing this
in Standard anyway 'cause it sounds right.

1st Verse/Intro: (clean)
e|-------------------------------------------||
B|-------------------------------------------||
G|-------------------------------------------||
D|--55555555---55555555---3333333333333333---||
A|--33333333---66666666---1111111111111111---||
E|-------------------------------------------||
    palm-mute throughout...

1st Chorus:
e|--------------------------||---------------------------||
B|--------------4-----------||--------------6------------||
G|-----------5-----5--------||-----------7-----7---------||
D|--------6-----------6-----||--------8-----------8------||
A|-----6-----------------6--||-----8-----------------8---||
E|--4-----------------------||--6------------------------||

e|--------------------------------------------------||
B|--------------3h4---------4-------4---------------||
G|--------5--------------5-------------5------------||
D|-----5-----5--------5----------5--------5------3--||
A|--3-----------------------------------------1-----||
E|--------------------------------------------------||
    Play all this 2x, then repeat 1st 2 measure ONLY, then...

e|---------------------------------------||
B|---------------------------------------||
G|-------8--------7--------5--------3----||
D|-----8--------7--------5--------3------||
A|---6-----6--5-----5--3-----3--1-----1--||
E|---------------------------------------||
[ Tab from: http://www.guitartabs.cc/tabs/b/blitzkid/love_like_blood_tab.html ]
e|--------------------------||--------------1----------1---||
B|--------------4-----------||-----------------1-------1---||
G|-----------5-----5--------||-----------3--------3----3---||
D|--------6-----------6-----||--------3----------------3---||
A|-----6-----------------6--||-----1-------------------1---||
E|---4----------------------||-----------------------------|||

From here on, all guitars are distorted & I'm only putting the
chords in their places, NOT the rhythm or anything.
2nd Verse:
e|------------------||
B|------------------||
G|---5----8---------||
D|---5----8----8----||
A|---3----6----8----||
E|-------------6----||

2nd Chorus:
e|-------------------||
B|-------------------||
G|-------------------||
D|--6---8---10---8---||
A|--6---8---10---8---||
E|--4---6----8---6---|| PLay this 2x, then...

e|-------------------------------------------------||
B|-------------------------------------------------||
G|-----------8--7--5---------------8---------------||
D|---6---8---8--7--5--8----6---8---8-------8---10--||
A|---6---8---6--5--3--8----6---8---6-------8---10--||
E|---4---6------------6----4---6-----------6----8--||

Bridge: (guitar & bass tabs)
e|----------------------------------------------------||
B|----------------------------------------------------||
G|-------8-----------------------(8)------------------||
D|--8----8-----------------------(8)------8-----10----||
A|--8----6-----------------------(6)------8-----10----||
E|--6-------------------------------------6------8----||
 ||                                                   ||
G|----------------------------------------------------||
D|-------5-5--6-6--8-8--6-6--5-5--6-6--8-8------------||
A|----6-----------------------------------------------||
E|--6--------------------------------------------8----||
         (play 3x, I think)

3rd Verse:
e|--------------------------------||
B|--------------------------------||
G|--------------------------------||
D|---5-----5------------8--\6--/--||
A|---3-----6-----8------8--\6--/--||
E|---------------6------6--\4--/--|| (something like that)

Last Chorus: same as the 2nd & 3rd, except end on a "C."
Comments