Blitz - New Age Chords & Tabs

 

New Age Chords & Tabs

Blitz Chords & Tabs

Version: 1 Type: Tab 0 ratings
1 star 2 stars 3 stars 4 stars 5 stars
comments

New Age Tab

Band: Blitz
Song: New Age


tabbed by jam9383@yahoo.com


Intro/Verse

e---------------------------------------------------------------------|
B--7-7-7-5-5-5-7-7-7-8-8-8-7-7-7-5-5-5-7------------------------------|
G---------------------------------------------------------------------|
D---------------------------------------------------------------------|
A---------------------------------------------------------------------|
E---------------------------------------------------------------------|

e---------------------------------------------------------------------|
B---------------------------------------------------------------------|
G--6-6-6-4-4-4-6-6-6-7-7-7-6-6-6-4-4-4-6------------------------------|
D---------------------------------------------------------------------|
A---------------------------------------------------------------------|
E---------------------------------------------------------------------|

Chorus
[ Tab from: http://www.guitartabs.cc/tabs/b/blitz/new_age_tab.html ]
e---------------------------------------------------------------------|
B---------------------------------------------------------------------|
G--7-7-7-7--9-9-9-9--7-7-7-7--9-9-9-9--7-7-7-7--9-9-9-9---------------|
D--7-7-7-7--9-9-9-9--7-7-7-7--9-9-9-9--7-7-7-7--9-9-9-9---------------|
A--5-5-5-5--7-7-7-7--5-5-5-5--7-7-7-7--5-5-5-5--7-7-7-7---------------|
E---------------------------------------------------------------------|


e---------------------------------------------------------------------|
B---------------------------------------------------------------------|
G---7------7-----7-----7-----7----------------------------------------|
D---7------7-----7-----7-----7----------------------------------------|
A---5------5-----5-----5-----5----------------------------------------|
E---------------------------------------------------------------------|

Bridge

e---------------------------------------------------------------------|
B---3-2-3-5--2-5--3-2-3-5~-----3-2-3-5--2-5--3-2-3-5~-----------------|
G---------------------------------------------------------------------|
D---------------------------------------------------------------------|
A---------------------------------------------------------------------|
E---------------------------------------------------------------------|

any comments/corrections contact me, please rate
Comments