Blissful Ignorance - Numb Chords & Tabs

 

Numb Chords & Tabs

Blissful Ignorance Chords & Tabs

Version: 2 Type: Tab 0 ratings
1 star 2 stars 3 stars 4 stars 5 stars
comments

Numb Tab

 Numb
 Blissful ignorance

 for this song you need to drop the E string to a D


  Intro and Verse: Guitar 1 (Adam)
E|----------------|------------8------|-----------------|---------3-----|
B|----------6p5---|--------------8----|-----------1-----|-------3---3---|
G|---7---7-----7--|---10---10------10-|---3---3-----3---|-----5-------5-|
D|----------------|-------------------|---------------3-|---5-----------|
A|-5---5----------|-8----8------------|-1---1-----------|-3-------------|
E|----------------|-------------------|-----------------|---------------|
[ Tab from: http://www.guitartabs.cc/tabs/b/blissful_ignorance/numb_tab_ver_2.html ]
 Verse Guitar 2 - Ian(comes in after 4 bars of intro)
E|----------------|-------------------|-----------------|----------------|
B|----------------|-------------------|-----------------|----------------|
G|-7-7-7-7-7-7-7-7|-1010101010101010--|-3-3-3-3-3-3-3-3-|-5-5-5-5-5-5-5-5|
D|-7-7-7-7-7-7-7-7|-1010101010101010--|-3-3-3-3-3-3-3-3-|-5-5-5-5-5-5-5-5|
A|-5-5-5-5-7-5-5-5|-8-8-8-8-10-8-8-8--|-1-1-1-1-1-1-1-1-|-3-3-3-3-3-3-3-3|
E|----------------|-------------------|-----------------|----------------|

Chorus (both Guitars)

E|----------------|-------------------|-----------------|----------------|
B|----------------|-------------------|-----------------|----------------|
G|----------------|-------------------|-----------------|----------------|
D|-5-------5--5-5-|-1-------1--1-1----|-3-------3--3-3--|-5-------x-x-x-x|
A|-5-------5--5-5-|-1-------1--1-1----|-3---------------|-5-------x-x-x-x|
E|-5-------5--5-5-|-1-------1--1-1----|-3-------3--3-3--|-5-------x-x-x-x|


Lyrics

I used get the feeling all mixed up inside
Sometimes I wanted to just run and hide

I used to get so exited I could burst
And used to get so scared that my stomach hurt

IM GETTING NUMB

now its like im looking through a piece of glass
and the snow is falling down
I don?t feel the coldness
Of this little town
Im stood back from my life
Drifting like a feather
Am I getting so much worse
Or is detachment better
Comments