Bliss 66 - Sooner Or Later Chords & Tabs

 

Sooner Or Later Chords & Tabs

Bliss 66 Chords & Tabs

Version: 2 Type: Tab 0 ratings
1 star 2 stars 3 stars 4 stars 5 stars
comments

Sooner Or Later Tab

   
Group : Bliss 66
Song  : Sooner Or Later

This song is as easy as they come. Listen to the song to know when to
change chords.


Standard Tuning
______________________________________________________________________

INTRO/VERSE

e ------------------------------------------------------|
B ------------------------------------------------------|
G ------------------------------------------------------|    (repeat as needed)
D --4h5--5-5---5-5--5--2--4-----4h5--5-5---5-5--5--7--4-|
A ------------------------------------------------------|
E ------------------------------------------------------|


PRE-CHORUS   ("I know you'll always be there...")

   (E5)         (C5)         (E5)         (C5)
e ----------------------------------------------------|
B ----------------------------------------------------|
G --9--9--9--9---5--5--5--5---9--9--9--9---5--5--5--5-|
D --9--9--9--9---5--5--5--5---9--9--9--9---5--5--5--5-|
A --7--7--7--7---3--3--3--3---7--7--7--7---3--3--3--3-|
E ----------------------------------------------------|
[ Tab from: http://www.guitartabs.cc/tabs/b/bliss_66/sooner_or_later_tab_ver_2.html ]
    (E5)         (C5)         (A5)
e -----------------------------------------------------|
B -----------------------------------------------------|
D ---9--9--9--9---5--5--5--5---2--2--2--2--2--2--2--2--|
G ---9--9--9--9---5--5--5--5---2--2--2--2--2--2--2--2--|
A ---7--7--7--7---3--3--3--3---0--0--0--0--0--0--0--0--|
E -----------------------------------------------------|


CHORUS     ("sooner or later...")

    (E5)   (A5)   (C#5)  (D5)   (A5)    (F#5)
e ------------------------------------------|
B ------------------------------------------|
G ---9------2------6------7-----------------|     (repeat as needed)
D ---9------2------6------7------7-------4--|
A ---7------0------4------5------5-------4--|
E -------------------------------5-------2--|


BRIDGE     ("I think its time you understand...")

    (C#m)   (B)     (A)     (B)
e ---4-------2-------0-------2--|
B ---5-------4-------2-------4--|
G ---6-------4-------2-------4--|     (2x)
D ---6-------4-------2-------4--|
A ---2-------2-------0-------2--|
E ------------------------------|
Comments