Blinking Underdogs - Salvation Chords & Tabs

 

Salvation Chords & Tabs

Blinking Underdogs Chords & Tabs

Version: 1 Type: Tab 0 ratings
1 star 2 stars 3 stars 4 stars 5 stars
comments

Salvation Tab

This song is pretty simple.. except for the ska verses...
(standard)
E----------------------------------------------
B----------------------------------------------
G----------------------------------------------
D--2/4x4----7------9---------------------------
A--2/4x4----7-x6---9-x6------------------------
E--0/2x2----5------7---------------------------
you figure out rythym for the song and palm muting.. tis really easy



End solo(the horns play the same thing along with this..)
[ Tab from: http://www.guitartabs.cc/tabs/b/blinking_underdogs/salvation_tab.html ]
D---------------------------------------------------------------
A--0-0-7-5-4-5----4-7-5-4--------4-5-7-5-7-5-4-5----------------
E-------------------------2----2--------------------------------

If you want to tune down to D then play the 2 as 4,
(power chords are really easy when you down tune.. if you dont know how to play them. they just give up)


A--0-0-7-5-4-5----4-7-5-4--------4-5-7-5-7-5-4-5----------------
D-------------------------4----4--------------------------------




For the verse, the basic chords are a bar chord on A & D and then the 7ths.
It shouldn't be too hard to figure out.. once i can tab it out ill post it

Comments