Blink 182 - When You Fucked Grandpa Chords & Tabs

 

When You Fucked Grandpa Chords & Tabs

Blink 182 Chords & Tabs

Version: 1 Type: Tab 0 ratings
1 star 2 stars 3 stars 4 stars 5 stars
comments

When You Fucked Grandpa Tab

#-----------------------------------------------------------------------------#
#-- File created with Instab - http://www.pconline.com/~smcarey/instab.html --#
#-----------------------------------------------------------------------------#

Author/Artist: Blink 182
Title: When you f*cked grandpa
Album: Take off your pants & Jacket
Transcribed by: Grant
Email: computergeek33@aol.com

I think there are more than one version of the bonus
tracks on the album.  On the one I got, this was track15
I don't know what its actually called but I think thats it
Here are the lyrics-the tab follows:

When you fucked grandpa
did he tell you that he loves you
did he hold you till the sun did rise
and did he look into your eyes
and tell you to falate him
and stick a finger or two in his ass

Chorus:
He seems like a total asshole
Grandpa is a total fucking asshole
who would ever want a dirty, greasy finger in his ass
He rubs his dick in Broken glass

2nd verse:
When you fucked Grandpa
did he kiss you soft and tender
did he tie your hands behind your head
and was it on your mother's bed

back to chorus with Mark shouting:
This is fucking stupid man.  I can't believe you'd have
sex with your own grandfather.  I mean your guys are
related.  What's he gonna do take out his false teeth
and just leave em on the bed.  man he'd like to fuck
you in the butt and everyone would come in and watch
and masturbate and cum all over the place.  This is
stupid I hate you all.  I'm not even gonna have sex with
my mom tonight.  I hate you

------------------------------------------------------------------------------|
-7---5---7---5---3---3/5-2---2------------------------------------------------|
---7---7---7---7---0-------2---2----------------------------------------------|
-0---0---0---0----------------------------------------------------------------|
-------------------------0---0------------------------------------------------|
-----------------3---3/5------------------------------------------------------|
 intro/verse
[ Tab from: http://www.guitartabs.cc/tabs/b/blink_182/when_you_fucked_grandpa_tab.html ]
-2---0---2---0----------------------------------------------------------------|
---3---3---3---3-3---3/5-2---2------------------------------------------------|
-------------------0-------2---2----------------------------------------------|
-0---0---0---0----------------------------------------------------------------|
-------------------------0---0------------------------------------------------|
-----------------3---3/5------------------------------------------------------|
 or you can play it like this^ (its easier)I think this is how Tom plays it

---------------------------------|--------------------------------------------|
-3---3---3---3---3---3---2---2---|---2---2---2---2---0------------------------|
---0---0---0---0---2---2---2---2-|-----2---2---2---2--------------------------|
---------------------------------|--------------------------------------------|
-----------------0---0---0---0---|---0---0---0---0---0------------------------|
-3---3---3---3-------------------|--------------------------------------------|
 chorus  repeat this 3x and then go straight to^     let ring

-2---0---2---0----------------------------------------------------------------|
---3---3---3---3-3---3/5-2---2-3----------------------------------------------|
-------------------0-------2--------------------------------------------------|
-0---0---0---0----------------------------------------------------------------|
-------------------------0---0-0----------------------------------------------|
-----------------3---3/5------------------------------------------------------|
 After the first chorus he changes to this^

------------------------------------------------------------------------------|
-------3----------------------------------------------------------------------|
-------2----------------------------------------------------------------------|
-------0----------------------------------------------------------------------|
------------------------------------------------------------------------------|
------------------------------------------------------------------------------|
 end on^
Comments