Blink 182 - Whats My Age Again Chords & Tabs

 

Whats My Age Again Chords & Tabs

Blink 182 Chords & Tabs

Version: 6 Type: Tab 1 rating
1 star 2 stars 3 stars 4 stars 5 stars
comments

Whats My Age Again Tab

simple! the very first song i ever learnt on guitar!! easy and ledgable!! any questions 
contact me on: rocking_since_93@hotmail.com!!


verse (this is played throughout the song, except the corus):

e------5---------5---------5--------5|----------5-----------5----------5
B---6-----6----6----6----6----6---6--|--6----6-----6-----6------6----6--
G-6---------6---------6---------6----|----6-----------6-----------6-----
D------------------------------------|----------------------------------
A------------------------------------|----------------------------------
E------------------------------------|----------------------------------





corus:
e------------------------------------|-------------------------------
B------------------------------------|-------------------------------
G-----------6-6-----8-8-----4-4-4-4--|---8--------6------------------
D---4-------6-6-----8-8-----4-4-4-4--|---8--x-8---6--x-8-------------
A---4-------4-4-----6-6-----2-2-2-2--|---6--------4------------------
E---2--------------------------------|-------------------------------
[ Tab from: http://www.guitartabs.cc/tabs/b/blink_182/whats_my_age_again_tab_ver_6.html ]
verse:
e------5---------5---------5--------5|----------5-----------5----------5
B---6-----6----6----6----6----6---6--|--6----6-----6-----6------6----6--
G-6---------6---------6---------6----|----6-----------6-----------6-----
D------------------------------------|----------------------------------
A------------------------------------|----------------------------------
E------------------------------------|----------------------------------



corus:
e------------------------------------|-------------------------------
B------------------------------------|-------------------------------
G-----------6-6-----8-8-----4-4-4-4--|---8--------6------------------
D---4-------6-6-----8-8-----4-4-4-4--|---8--x-8---6--x-8-------------
A---4-------4-4-----6-6-----2-2-2-2--|---6--------4------------------
E---2--------------------------------|-------------------------------

verse:
e------5---------5---------5--------5|----------5-----------5----------5
B---6-----6----6----6----6----6---6--|--6----6-----6-----6------6----6--
G-6---------6---------6---------6----|----6-----------6-----------6-----
D------------------------------------|----------------------------------


corus:
e------------------------------------|-------------------------------
B------------------------------------|-------------------------------
G-----------6-6-----8-8-----4-4-4-4--|---8--------6------------------
D---4-------6-6-----8-8-----4-4-4-4--|---8--x-8---6--x-8-------------
A---4-------4-4-----6-6-----2-2-2-2--|---6--------4------------------
E---2--------------------------------|-------------------------------

if u find this song 'out of place' or sounds a bit wrong, i cant say much seeming i've just satarted
and this is what i learnt cause its the easiest version 4 beginers!! im only 13[2006] and not great!!
Comments