Blink 182 - Whats My Age Again Chords & Tabs

 

Whats My Age Again Chords & Tabs

Blink 182 Chords & Tabs

Version: 5 Type: Tab 1 rating
1 star 2 stars 3 stars 4 stars 5 stars
comments

Whats My Age Again Tab

   
Gain:   7      Tip: Helps if you’ve got a distortion peddle.
Treble: 8
Mid:    7
Bass:   7
Reverb: 0


Intro/Verse (Clean)
e|-----------------------------------------------------|
B|------11---------11---------11----------11-----------|
G|---11----11---11----11---11----11----11----11--------|
D|-9---------------------------------------------------| x6
A|------------9----------------------------------------|
E|-----------------------9----------11-----------------|

e|------------------------|
B|------11---------11-----|
G|---11----11---11----11--|
D|-9----------9-----------| x1
A|------------------------|
E|------------------------|

Chorus (Distortion)
e|----------------------------|         
B|----------------------------|
G|----6-6--8-8--44444---------|
D|-4—-6-6--8-8--44444---------| x3   
A|-4—-4-4--6-6--22222---------|
E|-2--------------------------|

e|----------------------------|
B|----------------------------|
G|----6-6—-88888888-66666666--|
D|-4—-6-6—-88888888-66666666--| x1
A|-4—-4-4—-66666666-44444444--|
E|-2--------------------------|

(Clean)
e|-----------------------------------------------------|
B|------11---------11---------11----------11-----------|
G|---11----11---11----11---11----11----11----11--------|
D|-9---------------------------------------------------| x1
A|------------9----------------------------------------|
E|-----------------------9----------11-----------------|

Verse 2 (Palm Muted) (Distortion)
e|----------------------------------|
B|----------------------------------|
G|---------6-6-6-6------------------|
D|-4-4-4-4-4-4-4-4-6-6-6-6-8-8-8-8--| x3
A|-2-2-2-2---------4-4-4-4-6-6-6-6--|
E|----------------------------------|
[ Tab from: http://www.guitartabs.cc/tabs/b/blink_182/whats_my_age_again_tab_ver_5.html ]
e|-------------------------------------------------|
B|-------------------------------------------------|
G|---------6-6-6-6---------------------------------|
D|-4-4-4-4-4-4-4-4-6-6-6-6-6-6-6-6-4-4-4-4-4-4-4-4-|
A|-2-2-2-2---------4-4-4-4-4-4-4-4-2-2-2-2-2-2-2-2-|
E|-------------------------------------------------|

Chorus (Distortion)
e|----------------------------|         
B|----------------------------|
G|----6-6--8-8--44444---------|
D|-4—-6-6--8-8--44444---------| x3   
A|-4—-4-4--6-6--22222---------|
E|-2--------------------------|

e|----------------------------|
B|----------------------------|
G|----6-6—-88888888-66666666--|
D|-4—-6-6—-88888888-66666666--| x1
A|-4—-4-4—-66666666-44444444--|
E|-2--------------------------|

Interlude (Clean)
e|----------------------------------|
B|----11------11------11----11------|
G|--8----11------11------11----11---|
D|------------------9---------------|
A|----------------------------------|
E|----------------------------------|

e|------------------|
B|------------------|	   
G|------------------|	   
D|--------8/9-------|x4     
A|--9-9-9-----------|	     	
E|------------------|	     

e|------------------|
B|------------------|
G|--------11--------|
D|----8--------8----| x8
A|--9---9----9------|
E|------------------|

Final Chorus Play 3 Times through (Distortion)
e|----------------------------|         
B|----------------------------|
G|----6-6--8-8--44444---------|
D|-4—-6-6--8-8--44444---------| x3   
A|-4—-4-4--6-6--22222---------|
E|-2--------------------------|

e|----------------------------|
B|----------------------------|
G|----6-6—-88888888-66666666--|
D|-4—-6-6—-88888888-66666666--| x1
A|-4—-4-4—-66666666-44444444--|
E|-2--------------------------|

Final Chorus Backing Track (Clean) (Start Playing 2nd time through) 
e|-----------------------------------------------------|
B|------11---------11---------11----------11-----------|
G|---11----11---11----11---11----11----11----11--------|
D|-9---------------------------------------------------| 
A|------------9----------------------------------------|
E|-----------------------9----------11-----------------|

 
 
 
Comments