Blink 182 - Whats My Age Again Chords & Tabs

 

Whats My Age Again Chords & Tabs

Blink 182 Chords & Tabs

Version: 16 Type: Tab 0 ratings
1 star 2 stars 3 stars 4 stars 5 stars
comments

Whats My Age Again Tab

Blink 182, What's My Age Again?.
Tabbed by Ben Flores, platypus_x4@hotmail.com.
  
Title: What's My Age Again?
Tabbed By: Ben 

Intro
e------------------------------------------------------l
B---------13----------13-----------13-------------13---l
G-----13---13----13---13-----13---13------13---13------l
D--11--------------------------------------------------l
A-----------------11-----------------------------------l
E-------------------------------11------------13-------l

Verse 1 (Same as intro: Repeated over and over)
e------------------------------------------------------l
B---------13----------13-----------13-------------13---l
G-----13---13----13---13-----13---13------13---13------l
D--11--------------------------------------------------l
A-----------------11-----------------------------------l
E-------------------------------11------------13-------l

Chorus
e-----------------------------l
B-----------------------------l
G--------6-6---8-8---4-4------l
D--4-4---6-6---8-8---4-4------l
A--4-4---4-4---6-6---2-2------l
E--2-2------------------------l

Verse 2 (Palm Muted)

e--------------------------------------l
B--------------------------------------l
G--4-4-4-4-4-4-4-4---------------------l
D--4-4-4-4-4-4-4-4-4-4-4-4-4-4-4-4-----l
A--2-2-2-2-2-2-2-2-4-4-4-4-4-4-4-4-----l
E------------------2-2-2-2-2-2-2-2-----l
[ Tab from: http://www.guitartabs.cc/tabs/b/blink_182/whats_my_age_again_tab_ver_16.html ]
"Slow Pretty Part"
e----------------------------------------------------------l
B---------13-----------13------------13--------------13----l
G-----13---13-----13---13------13---13-------13---13-------l
D--11-----------13-------------11--------------13----------l
A----------------------------------------------------------l
E----------------------------------------------------------l

"Slow Pretty Part Continued"
e----------------------------------------------------------l
B----------------------------------------------------------l
G------------------------------------------13-----------13-l
D----------10-11-10-------10--10----------10---10----------l
A--11-11-------------11------11--11----11---11---11--------l
E----------------------------------------------------------l

Playing The Song
On the intro and verse 1, you should bar the 11th fret with your first finger,
place your 4th and 3rd fingers on the G and B strings(13th fret), and have your
2nd finger ready for that 13th fret on the E string.
Power chords are easy, just use your 1st, 3rd, and 4th fingers.  
It may be hard to fit all your fingers on the 13th fret for the slow pretty part,
so bar the first 3 strings with your 3rd finger, and have your 2nd finger ready
for the 4th string. During the slow pretty part continued, just move your 1st and
2nd fingers back and forth for the first part, then keep your pinky on the 13th fret
with your other fingers on frets 10 and 11.


Order

Intro
Verse 1
Chorus
Verse 2
Chorus
Slow Pretty Part
Slow Pretty Part Continued
Chorus
IÕm pretty sure this is 100% accurate (I spent a lot of time on it!), 
but itÕs always good to check it on your own.


:: Ultimate Guitar Archive :: 
http://www.ultimate-guitar.com
Comments