Blink 182 - Whats My Age Again Chords & Tabs

 

Whats My Age Again Chords & Tabs

Blink 182 Chords & Tabs

Version: 15 Type: Tab 0 ratings
1 star 2 stars 3 stars 4 stars 5 stars
comments

Whats My Age Again Tab

Blink 182, whats my age agian.
 Tabbed by Tom, Rangers767@aol.com.
  
-----------------------------------------
------11-------11---------11-------11----
---11---11---11---11----11---11--11---11-
-9---------------------------------------
------------9----------------------------
-----------------------9--------12-------...(listen for timing)

verse 1
-------------------------------
-------------------------------
----6-6--8-8---4-4-4-4---------
-4--6-6--8-8---4-4-4-4---------
-4--4-4--6-6---2-2-2-2---------
-2-----------------------------....listen for timing

verse 2
---------------------------------
---------------------------------
---------------------------------
-4-4-4-4---------6-6-6-6-8-8-8-8-
-2-2-2-2--4-4-4--4-4-4-4-6-6-6-6-
----------2-2-2------------------...listen for timing
then repeat verse 1.
[ Tab from: http://www.guitartabs.cc/tabs/b/blink_182/whats_my_age_again_tab_ver_15.html ]
chorus....(really hard)
-----------------------------------------------
---11-----11------11----11---------------------
------11-----11------11----11------------------
-----------------------------------------------
-9--------------9------------------------------
-----------------------------------------------

Chorus continue
-----------------------------------------------
-----------------------------------------------
-----------------------------------------------
-----------------------------------------------
--------8-9-------8-9--------------------------
-9-9-9-9---9-9-9-9----(4 times)----------------

chorus contiue.....2nd part
-----------------------------------------------
-----------------------------------------------
--------11------------------11-----------------
---8------------8-----8------------------------
-9---9-----9-9----9-9---9----------------------
-----------------------------------------------...repeat till drums and bass come
                     back in and then play verse 1 over and over(i think 8 times)

:: Ultimate Guitar Archive :: 
http://www.ultimate-guitar.com 



Comments