Blink 182 - Whats My Age Again Chords & Tabs

 

Whats My Age Again Chords & Tabs

Blink 182 Chords & Tabs

Version: 10 Type: Tab 0 ratings
1 star 2 stars 3 stars 4 stars 5 stars
comments

Whats My Age Again Tab

 Alex
 LessThnLaw@aol.com
 Blink 182
"What's My Age Again"
Album:  "Enema of the State"

Standard Tuning -- (EADGBe)

Intro (but played throughout the song)
e|-------------------------------------------------------|
B|-------11-----------11-----------11------------11------|
G|----11----11-----11----11-----11----11------11----11---|
D|--9----------------------------------------------------|
A|---------------9---------------------------------------|
E|----------------------------9------------11------------|
             "I took her out, It was a friday night..."
[ Tab from: http://www.guitartabs.cc/tabs/b/blink_182/whats_my_age_again_tab_ver_10.html ]
Chorus
e|-------------------------------------------------------|
B|-------------------------------------------------------|
G------6-6--8-8--4-4-4-4-(repeat)------------------------|
D|--4--6-6--8-8--4-4-4-4---------------------------------|
A|--4--4-4--6-6--2-2-2-2---------------------------------|
E|--2----------------------------------------------------|
             "And that's about the time..."
Then
e|-------------------------------------------------------|
B|-------------------------------------------------------|
G|-----6-6--8-8-8-8-8-8-8-8--6-6-6-6-6-6-6-6--4(let ring)|
D|--4--6-6--8-8-8-8-8-8-8-8--6-6-6-6-6-6-6-6--4----------|
A|--4--4-4--6-6-6-6-6-6-6-6--4-4-4-4-4-4-4-4--2----------|
E|--2----------------------------------------------------|

That's really about it. There's the interlude, and the palm muted parts... But it's not too hard to figure out. If you really can't do it, just e-mail me: LessThnLaw@aol.com

Comments