Blink 182 - Whats My Age Again Chords & Tabs

 

Whats My Age Again Chords & Tabs

Blink 182 Chords & Tabs

Version: 9 Type: Bass Tab 0 ratings
1 star 2 stars 3 stars 4 stars 5 stars
comments

Whats My Age Again Bass Tab

Blink 182 What's My Age Again? Bass tab
From the album Enema of the state
Track 5
Tabbed by Liam
Email: guitar_rocker_47@hotmail.com
Tuning: Standard

Guitar Intro (just encase you need it)
e|-----6-------6-------6-------6-------6-------6---|------------------------|
B|---7---7---7---7---7---7---7---7---7---7---7---7-|------------------------|
G|-6-------6-------6-------6-------6-------6-------|------------------------|
D|-------------------------------------------------|------------------------| x6
A|-------------------------------------------------|------------------------|
E|-------------------------------------------------|------------------------|

While the intro is being played bass plays this every now and then
Fill 1
G|-6---------|
D|---6-------|
A|-----6-----|
E|-------6---|

Chorus
G|------------------------------|-------------------------------------------|
D|------------------------------|-------------------------------------------|
A|--------4-x-x--6-6-x----------|--------4-x-x--6-6-x-----------------------|
E|--2-x----------------7-7-7-7--|--2-x----------------7-7-7-7---------------|
[ Tab from: http://www.guitartabs.cc/tabs/b/blink_182/whats_my_age_again_btab_ver_9.html ]
G|------------------------------|-------------------------------------------|
D|------------------------------|-------------------------------------------|
A|--------4-x-x--6-6-x----------|--------4-x-x--6-6-6-6-6-6-6-6-------------|
E|--2-x----------------7-7-7-7--|--2-x---------------------------7-7-7-7-7-7|

Verse 2
G|------------------------------------|-------------------------------------|
D|------------------------------------|-------------------------------------|
A|----------4-4-4-4--6-6-6-6----------|-----------4-4-4-4--6-6-6-6----------|
E|-2-2-2-2--------------------7-7-7-7-|--2-2-2-2--------------------7-7-7-7-|
PM ************************************************************************

G|------------------------------------|-------------------------------------|
D|------------------------------------|-------------------------------------|
A|----------4-4-4-4--6-6-6-6----------|----------4-4-4-4--6-6-6-6-6-6-6-6---|
E|-2-2-2-2--------------------7-7-7-7-|-2-2-2-2-----------------------------|
PM **********************************************************************

G|--------------------------------------------------------------------------|
D|--------------------------------------------------------------------------|
A|--------------------------------------------------------------------------|
E|-7-7-7-7-7-7--------------------------------------------------------------|
PM ***********

Repeat: Chorus

Bridge (played by guitar)

Repeat: Chorus x3


Rate this, if you like it, THANKS!
Comments