Blink 182 - What Went Wrong Chords & Tabs

 

What Went Wrong Chords & Tabs

Blink 182 Chords & Tabs

Version: 9 Type: Tab 0 ratings
1 star 2 stars 3 stars 4 stars 5 stars
comments

What Went Wrong Tab

tabbed by: Kurtis
e-mail: united_13@yahoo.com

This is the best song ever, play it on acoustic if you can, that's what it's
meant for.  On the recorded version it sounds like there are two guitars, but
they're both Tom, jus recorded over, the intro keeps playing in other parts, but
this is what he does on the live versions.

tuning: normal
Capo Ė fret 2

Intro
E|-------------------|
B|-------------------|
G|-------------------|
D|----9--7-----9--7--|
A|-7--------7--------|
E|-------------------|


Pre-verse
E|------------------------------------------------------|
B|------------------------------------------------------|
G|----------------------------6--6--6--6----7--7--7--7--|
D|--7--7--7--7--7--7--7--7----6--6--6--6----7--7--7--7--|
A|--7--7--7--5--7--7--5--5----4--4--4--4----5--5--5--5--|
E|--5--5--5--5--5--5--5--5------------------------------| x2


Verse 1
I'm sick, of always hearing,
E|----------------------------------------------------|
B|----------------------------------------------------|
G|----------------------------6--6--6--6--6--6--6--6--|
D|--7--7--7--7--7--7--7--7----6--6--6--6--6--6--6--6--|
A|--7--7--7--7--7--7--7--7----4--4--4--4--4--4--4--4--|
E|--5--5--5--5--5--5--5--5----------------------------|

All The sad songs, on the radio
E|----------------------------------------------------|
B|----------------------------------------------------|
G|--9--9--9--9--9--9--9--9----7--7--7--7--7--7--7--7--|
D|--9--9--9--9--9--9--9--7----7--7--7--7--7--7--7--7--|
A|--7--7--7--7--7--7--7--7----5--5--5--5--5--5--5--5--|
E|----------------------------------------------------|

All day it, is there to remind,
E|----------------------------------------------------|
B|----------------------------------------------------|
G|----------------------------6--6--6--6--6--6--6--6--|
D|--7--7--7--7--7--7--7--7----6--6--6--6--6--6--6--6--|
A|--7--7--7--7--7--7--7--7----4--4--4--4--4--4--4--4--|
E|--5--5--5--5--5--5--5--5----------------------------|

An oversensitive guy, that he's lost and alone, yeah
E|----------------------------------------------------|
B|----------------------------------------------------|
G|--9--9--9--9--9--9--9--9----7--7--7--7--7--7--7--7--|
D|--9--9--9--9--9--9--9--7----7--7--7--7--7--7--7--7--|
A|--7--7--7--7--7--7--7--7----5--5--5--5--5--5--5--5--|
E|----------------------------------------------------|

Pre-verse
E|------------------------------------------------------|
B|------------------------------------------------------|
G|----------------------------6--6--6--6----7--7--7--7--|
D|--7--7--7--7--7--7--7--7----6--6--6--6----7--7--7--7--|
A|--7--7--7--5--7--7--5--5----4--4--4--4----5--5--5--5--|
E|--5--5--5--5--5--5--5--5------------------------------| x2


Verse 2
I hate, our favorite restaurant,
E|----------------------------------------------------|
B|----------------------------------------------------|
G|----------------------------6--6--6--6--6--6--6--6--|
D|--7--7--7--7--7--7--7--7----6--6--6--6--6--6--6--6--|
A|--7--7--7--7--7--7--7--7----4--4--4--4--4--4--4--4--|
E|--5--5--5--5--5--5--5--5----------------------------|

Our favorite movie, our favorite show
E|----------------------------------------------------|
B|----------------------------------------------------|
G|--9--9--9--9--9--9--9--9----7--7--7--7--7--7--7--7--|
D|--9--9--9--9--9--9--9--7----7--7--7--7--7--7--7--7--|
A|--7--7--7--7--7--7--7--7----5--5--5--5--5--5--5--5--|
E|----------------------------------------------------|

We would, stay up all through the night,
E|----------------------------------------------------|
B|----------------------------------------------------|
G|----------------------------6--6--6--6--6--6--6--6--|
D|--7--7--7--7--7--7--7--7----6--6--6--6--6--6--6--6--|
A|--7--7--7--7--7--7--7--7----4--4--4--4--4--4--4--4--|
E|--5--5--5--5--5--5--5--5----------------------------|

We would laugh and get high, never answer the phone
E|----------------------------------------------------|
B|----------------------------------------------------|
G|--9--9--9--9--9--9--9--9----7--7--7--7--7--7--7--7--|
D|--9--9--9--9--9--9--9--7----7--7--7--7--7--7--7--7--|
A|--7--7--7--7--7--7--7--7----5--5--5--5--5--5--5--5--|
E|----------------------------------------------------|


Chorus
I canít forgive, canít
E|----------------------------------------------------|
B|----------------------------------------------------|
G|----------------------------------------------------|
D|--7--7--7--7--7--7--7--7----6--6--6--6--6--6--6--6--|
A|--7--7--7--7--7--7--7--7----6--6--6--6--6--6--6--6--|
E|--5--5--5--5--5--5--5--5----4--4--4--4--4--4--4--4--|

Forget, can't give in
E|----------------------------------------------------|
B|----------------------------------------------------|
G|--6--6--6--6--6--6--6--6----7--7--7--7--7--7--7--7--|
D|--6--6--6--6--6--6--6--6----7--7--7--7--7--7--7--7--|
A|--4--4--4--4--4--4--4--4----5--5--5--5--5--5--5--5--|
E|----------------------------------------------------|

What went wrong, 'cause you
E|----------------------------------------------------|
B|----------------------------------------------------|
G|----------------------------------------------------|
D|--7--7--7--7--7--7--7--7----6--6--6--6--6--6--6--6--|
A|--7--7--7--7--7--7--7--7----6--6--6--6--6--6--6--6--|
E|--5--5--5--5--5--5--5--5----4--4--4--4--4--4--4--4--|
[ Tab from: http://www.guitartabs.cc/tabs/b/blink_182/what_went_wrong_tab_ver_9.html ]
Said this was right, you fucked up my life
E|----------------------------------------------------|
B|----------------------------------------------------|
G|--6--6--6--6--6--6--6--6----7--7--7--7--7--7--7--7--|
D|--6--6--6--6--6--6--6--6----7--7--7--7--7--7--7--7--|
A|--4--4--4--4--4--4--4--4----5--5--5--5--5--5--5--5--|
E|----------------------------------------------------|


Pre-verse
E|------------------------------------------------------|
B|------------------------------------------------------|
G|----------------------------6--6--6--6----7--7--7--7--|
D|--7--7--7--7--7--7--7--7----6--6--6--6----7--7--7--7--|
A|--7--7--7--5--7--7--5--5----4--4--4--4----5--5--5--5--|
E|--5--5--5--5--5--5--5--5------------------------------| x2


Verse 3
I'm sick, of always hearing,
E|----------------------------------------------------|
B|----------------------------------------------------|
G|----------------------------6--6--6--6--6--6--6--6--|
D|--7--7--7--7--7--7--7--7----6--6--6--6--6--6--6--6--|
A|--7--7--7--7--7--7--7--7----4--4--4--4--4--4--4--4--|
E|--5--5--5--5--5--5--5--5----------------------------|

Sappy love songs, on the radio,
E|----------------------------------------------------|
B|----------------------------------------------------|
G|--9--9--9--9--9--9--9--9----7--7--7--7--7--7--7--7--|
D|--9--9--9--9--9--9--9--7----7--7--7--7--7--7--7--7--|
A|--7--7--7--7--7--7--7--7----5--5--5--5--5--5--5--5--|
E|----------------------------------------------------|

This place, It's fucking cursed in its plague,
E|----------------------------------------------------|
B|----------------------------------------------------|
G|----------------------------6--6--6--6--6--6--6--6--|
D|--7--7--7--7--7--7--7--7----6--6--6--6--6--6--6--6--|
A|--7--7--7--7--7--7--7--7----4--4--4--4--4--4--4--4--|
E|--5--5--5--5--5--5--5--5----------------------------|

And I can never escape, when my hear it explodes
E|----------------------------------------------------|
B|----------------------------------------------------|
G|--9--9--9--9--9--9--9--9----7--7--7--7--7--7--7--7--|
D|--9--9--9--9--9--9--9--7----7--7--7--7--7--7--7--7--|
A|--7--7--7--7--7--7--7--7----5--5--5--5--5--5--5--5--|
E|----------------------------------------------------|


Chorus
I canít forgive, canít
E|----------------------------------------------------|
B|----------------------------------------------------|
G|----------------------------------------------------|
D|--7--7--7--7--7--7--7--7----6--6--6--6--6--6--6--6--|
A|--7--7--7--7--7--7--7--7----6--6--6--6--6--6--6--6--|
E|--5--5--5--5--5--5--5--5----4--4--4--4--4--4--4--4--|

Forget, can't give in
E|----------------------------------------------------|
B|----------------------------------------------------|
G|--6--6--6--6--6--6--6--6----7--7--7--7--7--7--7--7--|
D|--6--6--6--6--6--6--6--6----7--7--7--7--7--7--7--7--|
A|--4--4--4--4--4--4--4--4----5--5--5--5--5--5--5--5--|
E|----------------------------------------------------|

What went wrong, 'cause you
E|----------------------------------------------------|
B|----------------------------------------------------|
G|----------------------------------------------------|
D|--7--7--7--7--7--7--7--7----6--6--6--6--6--6--6--6--|
A|--7--7--7--7--7--7--7--7----6--6--6--6--6--6--6--6--|
E|--5--5--5--5--5--5--5--5----4--4--4--4--4--4--4--4--|

Said this was right, you fucked up my life
E|----------------------------------------------------|
B|----------------------------------------------------|
G|--6--6--6--6--6--6--6--6----7--7--7--7--7--7--7--7--|
D|--6--6--6--6--6--6--6--6----7--7--7--7--7--7--7--7--|
A|--4--4--4--4--4--4--4--4----5--5--5--5--5--5--5--5--|
E|----------------------------------------------------|

Interlude:
E|---------------------------------------------------------------|
B|---------------------------------------------------------------|
G|----9----6----9----6----9----6----9----6----9----6----9----6---|
D|---7-7--7-7--7-7--7-7--7-7--7-7--7-7--7-7--7-7--7-7--7-7--7-7--|
A|--0----0----0----0----7----7----7----7----0----0---------------|
E|----------------------------------------------------7----7-----|

E|---------------------------------|
B|---------------------------------|
G|----6---6-------6-6-6-6-6-6-6-6--|
D|---7---7----7-7-7-7-7-7-7-7-7-7--|
A|--5---5---5-----5-5-5-5-5-5-5-5--|
E|---------------------------------|


Pre-verse
E|------------------------------------------------------|
B|------------------------------------------------------|
G|----------------------------6--6--6--6----7--7--7--7--|
D|--7--7--7--7--7--7--7--7----6--6--6--6----7--7--7--7--|
A|--7--7--7--5--7--7--5--5----4--4--4--4----5--5--5--5--|
E|--5--5--5--5--5--5--5--5------------------------------| x5


Verse 4
Iím kicking, out fiercely at the world
E|------------------------------------------------------|
B|------------------------------------------------------|
G|----------------------------6--6--6--6----7--7--7--7--|
D|--7--7--7--7--7--7--7--7----6--6--6--6----7--7--7--7--|
A|--7--7--7--5--7--7--5--5----4--4--4--4----5--5--5--5--|
E|--5--5--5--5--5--5--5--5------------------------------|

Around me, what went wrong?
E|------------------------------------------------------|
B|------------------------------------------------------|
G|----------------------------6--6--6--6----7--7--7--7--|
D|--7--7--7--7--7--7--7--7----6--6--6--6----7--7--7--7--|
A|--7--7--7--5--7--7--5--5----4--4--4--4----5--5--5--5--|
E|--5--5--5--5--5--5--5--5------------------------------| x4

Iím kicking
E|-----|
B|-----|
G|-----|
D|--7--|
A|--7--|
E|--5--|
Comments