Blink 182 - What Went Wrong Chords & Tabs

 

What Went Wrong Chords & Tabs

Blink 182 Chords & Tabs

Version: 8 Type: Tab 0 ratings
1 star 2 stars 3 stars 4 stars 5 stars
comments

What Went Wrong Tab

  Blink 182 - What went wrong
(Take Off Your Pants And Jacket)

- Place capo on 2nd fret
- Tuning: EADGad
- Listen to the song to get the rythm.

Tabbed by Mikael Wall, January 2003.

Note: If your going to get this song
      100% right you need two guitars.


Intro, 1:st guitar:

d-----------------------|
a-----------------------|
G-----------------------|
D--------7--5-----------|  2x
A----5------------------|
E-----------------------|

Intro, 2:nd guitar:

d----0----0----0--------|
a----0----0----0--------|
G----0----0----5--------|
D----5----5----5--------|  2x (mixed with 1:st)
A----5----2----3--------|
E----3----0----0--------|


Verses:

d----0----0----0----0---|
a----0----0----0----0---|
G----0----0----7----5---|
D----5----2----7----5---|  2x
A----5----2----5----3---|
E----3----0----0----0---|
I'm sick, of always hearing...


(Repeat Intro 2:nd mixed with Intro 1:st 2x)

(Repeat Verses)


Chorus:

d----0----0----0----0---|
a----0----0----0----0---|
G----0----0----0----0---|
D----5----4----2----5---|  2x
A----5----5----2----3---|
E----3----2----0----0---|
I can't forgive, can't forget...


(Repeat Intro 2:nd mixed with Intro 1:st 2x)

(Repeat Verses)

(Repeat Chorus)

[ Tab from: http://www.guitartabs.cc/tabs/b/blink_182/what_went_wrong_tab_ver_8.html ]
Nice part, 2:nd guitar:
 
d-----0---------------0---------------0---------------0-----------
a-------------2---------------2---------------2---------------2---
G---0---0---0---0---0---0---0---0---0---0---0---0---0---0---0---0-
D-----------------------------------------------------------------
A---------------------------------3-------3-------3-------3-------
E-0-------0-------0-------0---------------------------------------


-----0---------------0--------------------------0-0-0--------------|
-------------2---------------2-------2---2--2---2-2-2--------------|
---0---0---0---0---0---0---0---0---0---0-0--0---0-0-0--------------|
------------------------------------------------0-0-0--------------|
-----------------0-------0-------3-------3-3--3-3-3-3--------------|
-3-------3--------------------------------------0-0-0--------------|



Solo, 1:st guitar:

d------------------------------------------------------------------|
a------------------------------------------------------------------|
G----------------------4--5--7----------------4--------------------|
D----5----4--5--7--5------------5----4--5--7-------5-----7---7--5--|
A-----------------------------------------------------5------------|
E------------------------------------------------------------------|

Solo background, 2:nd guitar:

d----0----0----0-------0----0----0-------0----0|
a----0----0----0-------0----0----0-------0----0|
G----0----5----0-------0----5----0-------7----5|
D----5----5----5-------5----5----5-------7----5|
A----2----3----5-------2----3----5-------5----3|
E----0----0----3-------0----0----3-------0----0|



Outro:

(Repeat Intro 2:nd 4x)                                    
(Repeat Intro 2:nd mixed with Intro 1:st 4x)
(End on the first chord in Intro 2:nd)



                       ENJOY!
Comments