Blink 182 - What Went Wrong Chords & Tabs

 

What Went Wrong Chords & Tabs

Blink 182 Chords & Tabs

Version: 7 Type: Tab 0 ratings
1 star 2 stars 3 stars 4 stars 5 stars
comments

What Went Wrong Tab

Blink 182 - What Went Wrong, T.O.Y.P.A.J(bonus track)
Acustic Guitar
Tabbed By:Mike,hawker489@aol.com
Standard Tuning

Intro
e----------------
B----------------
G---4-2-----4-2--
D-2-------2------
A----------------
E----------------

Bridge
e------------------------------------
B------------------------------------
G---------------------------7-7-7-7--
D-7-7-7-7-7-7-7-7--4-4-4-4--7-7-7-7--
A-7-7-7-7-7-7-7-7--4-4-4-4--5-5-5-5--
E-5-5-5-5-5-5-5-5--2-2-2-2-----------

Verse
e----------------------------------------------------
B----------------------------------------------------
G-----------------------------------9-9-9-9-9-9-9-9--
D-7-7-7-7-7-7-7-7--4-4-4-4-4-4-4-4--9-9-9-9-9-9-9-9--
A-7-7-7-7-7-7-7-7--4-4-4-4-4-4-4-4--7-7-7-7-7-7-7-7--
E-5-5-5-5-5-5-5-5--2-2-2-2-2-2-2-2-------------------

----------------------------------------------------
----------------------------------------------------
-7-7-7-7-7-7-7-7------------------------------------
-7-7-7-7-7-7-7-7--7-7-7-7-7-7-7-7--4-4-4-4-4-4-4-4--
-5-5-5-5-5-5-5-5--7-7-7-7-7-7-7-7--4-4-4-4-4-4-4-4--
------------------5-5-5-5-5-5-5-5--2-2-2-2-2-2-2-2--

-----------------------------------
-----------------------------------
-9-9-9-9-9-9-9-9--7-7-7-7-7-7-7-7--
-9-9-9-9-9-9-9-9--7-7-7-7-7-7-7-7--
-7-7-7-7-7-7-7-7--5-5-5-5-5-5-5-5--

(Bridge)
(Verse)

Chorus
e----------------------------------------------------
B----------------------------------------------------
G----------------------------------------------------
D-7-7-7-7-7-7-7-7--6-6-6-6-6-6-6-6--4-4-4-4-4-4-4-4--
A-7-7-7-7-7-7-7-7--6-6-6-6-6-6-6-6--4-4-4-4-4-4-4-4--
E-5-5-5-5-5-5-5-5--4-4-4-4-4-4-4-4--2-2-2-2-2-2-2-2--

----------------------------------------------------
----------------------------------------------------
-7-7-7-7-7-7-7-7------------------------------------
-7-7-7-7-7-7-7-7--7-7-7-7-7-7-7-7--6-6-6-6-6-6-6-6--
-5-5-5-5-5-5-5-5--7-7-7-7-7-7-7-7--6-6-6-6-6-6-6-6--
------------------5-5-5-5-5-5-5-5--4-4-4-4-4-4-4-4--
[ Tab from: http://www.guitartabs.cc/tabs/b/blink_182/what_went_wrong_tab_ver_7.html ]
----------------------------------------------------
----------------------------------------------------
------------------7-7-7-7-7-7-7-7-------------------
-4-4-4-4-4-4-4-4--7-7-7-7-7-7-7-7--7-7-7-7-7-7-7-7--
-4-4-4-4-4-4-4-4--5-5-5-5-5-5-5-5--7-7-7-7-7-7-7-7--
-2-2-2-2-2-2-2-2-------------------5-5-5-5-5-5-5-5--

(Bridge)
(Verse)
(Chorus)

Riff1
e---0---------0---------0---------0---------0---------0--
B--------2---------2---------2---------2---------2-------
G--2-2--2-2--2-2--2-2--2-2--2-2--2-2--2-2--2-2--2-2--2-2-
D-4----4----4----4----0----0----0----0-------------------
A-----------------------------------------0----0----2----
E--------------------------------------------------------

---------------
---2----2-2-2--
--2-2--2-2-2---
------0-0-0----
-2-------------
---------------

Bridge
e----------------------------------------------------
B----------------------------------------------------
G-7-7-7-7-7-7-7-7-------------------7-7-7-7-7-7-7-7--
D-7-7-7-7-7-7-7-7--4-4-4-4-4-4-4-4--7-7-7-7-7-7-7-7--
A-5-5-5-5-5-5-5-5--4-4-4-4-4-4-4-4--5-5-5-5-5-5-5-5--
E------------------2-2-2-2-2-2-2-2-------------------

----------------------------------------------------
----------------------------------------------------
-----------------------------------7-7-7-7-7-7-7-7--
-7-7-7-7-7-7-7-7--4-4-4-4-4-4-4-4--7-7-7-7-7-7-7-7--
-7-7-7-7-7-7-7-7--4-4-4-4-4-4-4-4--5-5-5-5-5-5-5-5--
-5-5-5-5-5-5-5-5--2-2-2-2-2-2-2-2-------------------

----------------------------------------------------
----------------------------------------------------
------------------4-4-4-4-4-4-4-4--7-7-7-7-7-7-7-7--
-7-7-7-7-7-7-7-7--4-4-4-4-4-4-4-4--7-7-7-7-7-7-7-7--
-7-7-7-7-7-7-7-7--2-2-2-2-2-2-2-2--5-5-5-5-5-5-5-5--
-5-5-5-5-5-5-5-5------------------------------------

Verse x6
e----------------------------------------------------
B----------------------------------------------------
G-----------------------------------7-7-7-7-7-7-7-7--
D-7-7-7-7-7-7-7-7--4-4-4-4-4-4-4-4--7-7-7-7-7-7-7-7--
A-7-7-7-7-7-7-7-7--4-4-4-4-4-4-4-4--5-5-5-5-5-5-5-5--
E-5-5-5-5-5-5-5-5--2-2-2-2-2-2-2-2-------------------

Outro
e------------------
B------------------
G------------------
D-7-7-7-7-7-7-7-7--
A-7-7-7-7-7-7-7-7--
E-5-5-5-5-5-5-5-5--

Well thats finally it! Pretty long song, but easy.
Comments