Blink 182 - What Went Wrong Chords & Tabs

 

What Went Wrong Chords & Tabs

Blink 182 Chords & Tabs

Version: 5 Type: Tab 0 ratings
1 star 2 stars 3 stars 4 stars 5 stars
comments

What Went Wrong Tab

Artist/Band:Blink 182 
Title:What Went Wrong? 
Album:Take Of Your Pants And Jacket 
Tabed By:Adam Taylor(InfernoCaliber@hotmail.com) 

I'm sick,of allways hearing,all The sad songs on the radio, 
All day it,is there To Remind,an oversensitive guy,that he's lost and  
alone,Yeah, 

I hate a favorite resterount,A favorite movie,Our favorite show, 
We would Stay up all throught the night,We would laught and get high and  
never answer the phone, 

I can't forgive Cant forget Cant give in, 
What went wrong?,'cos you said this was right,You fucked up my life, 


I'm sick,of allways hearing,Sappy Love songs,on the radio, 
And this place,It's Fucking Cursed in its Plague,And I can never esacape  
When my heartake Explodes 

I can't forgive Cant forget Cant give in, 
What went wrong?,'cos you said this was right,You fucked up my life, 

Interlude thingy 

I'm kicking,How fircely A whirlwind around me 
What went Wrong? 
I'm Kicking,How Fircely A whirlwind Around me 
What Went Wrong? 
I'm Kicking,How Fircely A whirlwind Around me 
What Went Wrong? 
I'm Kicking,How Fircely A whirlwind Around me 
What Went Wrong? 

I'm Kicking............. 

The Tab: 
This Is My First Tab but it sounds okay,E mail me with your abuse if you  
think it Sucks 

Intro 

E|---------------------------| 
B|---------------------------| 
G|---------------------------| 
D|----9--7-----9--7----------| 
A|-7--------7----------------| 
E|---------------------------|  x1 

PreVerse Interlude 

E|------------------------------------------------------| 
B|------------------------------------------------------| 
G|------------------------------------------7--7--7--7--| 
D|--7--7--7--7--7--7--7--7----4--4--4--4----7--7--7--7--| 
A|--7--7--7--5--7--7--5--5----4--4--4--4----5--5--5--5--| 
E|--5--5--5--5--5--5--5--5----2--2--2--2----------------| x2 

Verse 
I'm sick,of allways hearing 
E|----------------------------------------------------| 
B|----------------------------------------------------| 
G|----------------------------------------------------| 
D|--7--7--7--7--7--7--7--7----4--4--4--4--4--4--4--4--| 
A|--7--7--7--7--7--7--7--7----4--4--4--4--4--4--4--4--| 
E|--5--5--5--5--5--5--5--5----2--2--2--2--2--2--2--2--| 

All The sad songs,On the radio 
E|----------------------------------------------------| 
B|----------------------------------------------------| 
G|--9--9--9--9--9--9--9--9----7--7--7--7--7--7--7--7--| 
D|--9--9--9--9--9--9--9--7----7--7--7--7--7--7--7--7--| 
A|--7--7--7--7--7--7--7--7----5--5--5--5--5--5--5--5--| 
E|----------------------------------------------------| 

All day it,is there To Remind 
E|----------------------------------------------------| 
B|----------------------------------------------------| 
G|----------------------------------------------------| 
D|--7--7--7--7--7--7--7--7----4--4--4--4--4--4--4--4--| 
A|--7--7--7--7--7--7--7--7----4--4--4--4--4--4--4--4--| 
E|--5--5--5--5--5--5--5--5----2--2--2--2--2--2--2--2--| 

an oversensitive guy,that he's lost and alone,Yeah, 
E|----------------------------------------------------| 
B|----------------------------------------------------| 
G|--9--9--9--9--9--9--9--9----7--7--7--7--7--7--7--7--| 
D|--9--9--9--9--9--9--9--7----7--7--7--7--7--7--7--7--| 
A|--7--7--7--7--7--7--7--7----5--5--5--5--5--5--5--5--| 
E|----------------------------------------------------| 

PreVerse Interlude 

E|------------------------------------------------------| 
B|------------------------------------------------------| 
G|------------------------------------------7--7--7--7--| 
D|--7--7--7--7--7--7--7--7----4--4--4--4----7--7--7--7--| 
A|--7--7--7--5--7--7--5--5----4--4--4--4----5--5--5--5--| 
E|--5--5--5--5--5--5--5--5----2--2--2--2----------------| x2 

Verse 

I hate a favorite resterount, 
E|----------------------------------------------------| 
B|----------------------------------------------------| 
G|----------------------------------------------------| 
D|--7--7--7--7--7--7--7--7----4--4--4--4--4--4--4--4--| 
A|--7--7--7--7--7--7--7--7----4--4--4--4--4--4--4--4--| 
E|--5--5--5--5--5--5--5--5----2--2--2--2--2--2--2--2--| 

A favorite movie,Our favorite show, 
E|----------------------------------------------------| 
B|----------------------------------------------------| 
G|--9--9--9--9--9--9--9--9----7--7--7--7--7--7--7--7--| 
D|--9--9--9--9--9--9--9--7----7--7--7--7--7--7--7--7--| 
A|--7--7--7--7--7--7--7--7----5--5--5--5--5--5--5--5--| 
E|----------------------------------------------------| 

We would Stay up all throught the night, 
E|----------------------------------------------------| 
B|----------------------------------------------------| 
G|----------------------------------------------------| 
D|--7--7--7--7--7--7--7--7----4--4--4--4--4--4--4--4--| 
A|--7--7--7--7--7--7--7--7----4--4--4--4--4--4--4--4--| 
E|--5--5--5--5--5--5--5--5----2--2--2--2--2--2--2--2--| 

We would laught and get high and never answer the phone, 
E|----------------------------------------------------| 
B|----------------------------------------------------| 
G|--9--9--9--9--9--9--9--9----7--7--7--7--7--7--7--7--| 
D|--9--9--9--9--9--9--9--7----7--7--7--7--7--7--7--7--| 
A|--7--7--7--7--7--7--7--7----5--5--5--5--5--5--5--5--| 
E|----------------------------------------------------| 

Chourus 
[ Tab from: http://www.guitartabs.cc/tabs/b/blink_182/what_went_wrong_tab_ver_5.html ]
I cant forgive,cant 
E|----------------------------------------------------| 
B|----------------------------------------------------| 
G|----------------------------------------------------| 
D|--7--7--7--7--7--7--7--7----4--4--4--4--4--4--4--4--| 
A|--7--7--7--7--7--7--7--7----4--4--4--4--4--4--4--4--| 
E|--5--5--5--5--5--5--5--5----2--2--2--2--2--2--2--2--| 

forget,Can't give in 
E|----------------------------------------------------| 
B|----------------------------------------------------| 
G|--9--9--9--9--9--9--9--9----7--7--7--7--7--7--7--7--| 
D|--9--9--9--9--9--9--9--7----7--7--7--7--7--7--7--7--| 
A|--7--7--7--7--7--7--7--7----5--5--5--5--5--5--5--5--| 
E|----------------------------------------------------| 

What went wrong?,'cos you 
E|----------------------------------------------------| 
B|----------------------------------------------------| 
G|----------------------------------------------------| 
D|--7--7--7--7--7--7--7--7----4--4--4--4--4--4--4--4--| 
A|--7--7--7--7--7--7--7--7----4--4--4--4--4--4--4--4--| 
E|--5--5--5--5--5--5--5--5----2--2--2--2--2--2--2--2--| 

said this was right,You fucked up my life 
E|----------------------------------------------------| 
B|----------------------------------------------------| 
G|--9--9--9--9--9--9--9--9----7--7--7--7--7--7--7--7--| 
D|--9--9--9--9--9--9--9--7----7--7--7--7--7--7--7--7--| 
A|--7--7--7--7--7--7--7--7----5--5--5--5--5--5--5--5--| 
E|----------------------------------------------------| 

PreVerse Interlude 

E|------------------------------------------------------| 
B|------------------------------------------------------| 
G|------------------------------------------7--7--7--7--| 
D|--7--7--7--7--7--7--7--7----4--4--4--4----7--7--7--7--| 
A|--7--7--7--5--7--7--5--5----4--4--4--4----5--5--5--5--| 
E|--5--5--5--5--5--5--5--5----2--2--2--2----------------| x2 

Verse 

I'm sick,of allways hearing, 
E|----------------------------------------------------| 
B|----------------------------------------------------| 
G|----------------------------------------------------| 
D|--7--7--7--7--7--7--7--7----4--4--4--4--4--4--4--4--| 
A|--7--7--7--7--7--7--7--7----4--4--4--4--4--4--4--4--| 
E|--5--5--5--5--5--5--5--5----2--2--2--2--2--2--2--2--| 

Sappy Love songs,on the radio, 
E|----------------------------------------------------| 
B|----------------------------------------------------| 
G|--9--9--9--9--9--9--9--9----7--7--7--7--7--7--7--7--| 
D|--9--9--9--9--9--9--9--7----7--7--7--7--7--7--7--7--| 
A|--7--7--7--7--7--7--7--7----5--5--5--5--5--5--5--5--| 
E|----------------------------------------------------| 

And this place,It's Fucking Cursed in its Plague, 
E|----------------------------------------------------| 
B|----------------------------------------------------| 
G|----------------------------------------------------| 
D|--7--7--7--7--7--7--7--7----4--4--4--4--4--4--4--4--| 
A|--7--7--7--7--7--7--7--7----4--4--4--4--4--4--4--4--| 
E|--5--5--5--5--5--5--5--5----2--2--2--2--2--2--2--2--| 

And I can never esacape When my heartake Explodes 
E|----------------------------------------------------| 
B|----------------------------------------------------| 
G|--9--9--9--9--9--9--9--9----7--7--7--7--7--7--7--7--| 
D|--9--9--9--9--9--9--9--7----7--7--7--7--7--7--7--7--| 
A|--7--7--7--7--7--7--7--7----5--5--5--5--5--5--5--5--| 
E|----------------------------------------------------| 

Chourus 

I cant forgive,cant 
E|----------------------------------------------------| 
B|----------------------------------------------------| 
G|----------------------------------------------------| 
D|--7--7--7--7--7--7--7--7----4--4--4--4--4--4--4--4--| 
A|--7--7--7--7--7--7--7--7----4--4--4--4--4--4--4--4--| 
E|--5--5--5--5--5--5--5--5----2--2--2--2--2--2--2--2--| 

forget,Can't give in 
E|----------------------------------------------------| 
B|----------------------------------------------------| 
G|--9--9--9--9--9--9--9--9----7--7--7--7--7--7--7--7--| 
D|--9--9--9--9--9--9--9--7----7--7--7--7--7--7--7--7--| 
A|--7--7--7--7--7--7--7--7----5--5--5--5--5--5--5--5--| 
E|----------------------------------------------------| 

What went wrong?,'cos you 
E|----------------------------------------------------| 
B|----------------------------------------------------| 
G|----------------------------------------------------| 
D|--7--7--7--7--7--7--7--7----4--4--4--4--4--4--4--4--| 
A|--7--7--7--7--7--7--7--7----4--4--4--4--4--4--4--4--| 
E|--5--5--5--5--5--5--5--5----2--2--2--2--2--2--2--2--| 

said this was right,You fucked up my life 
E|----------------------------------------------------| 
B|----------------------------------------------------| 
G|--9--9--9--9--9--9--9--9----7--7--7--7--7--7--7--7--| 
D|--9--9--9--9--9--9--9--7----7--7--7--7--7--7--7--7--| 
A|--7--7--7--7--7--7--7--7----5--5--5--5--5--5--5--5--| 
E|----------------------------------------------------| 

Interlude 

E|----------------------------------------------------| 
B|----------------------------------------------------| 
G|----------------------------------------------------| 
D|----------------------------------------------------| 
A|----------------------------------------------------| 
E|----------------------------------------------------| 

Pre chourus interlude 

E|------------------------------------------------------| 
B|------------------------------------------------------| 
G|------------------------------------------7--7--7--7--| 
D|--7--7--7--7--7--7--7--7----4--4--4--4----7--7--7--7--| 
A|--7--7--7--5--7--7--5--5----4--4--4--4----5--5--5--5--| 
E|--5--5--5--5--5--5--5--5----2--2--2--2----------------| x2 
Comments