Blink 182 - What Went Wrong Guitar Chords & Tabs

 

What Went Wrong Guitar Chords & Tabs

Blink 182 Chords & Tabs

Version: 1 Type: Tab 0 ratings
1 star 2 stars 3 stars 4 stars 5 stars
comments

What Went Wrong Guitar Tab

“What Went Wrong” (Guitar 1)
Blink 182
Take Off Your Pants and Jacket

Intro:
e |----------------------------|
B |-----0----------0-----------|
G |----------2---------2-------|                     Play 3X
D |--2----------2--------------|
A |----------------------------|
E |----------------------------|


“That he’s lost and alone”
e |----------------------------|
B |-----0----------0-----------|
G |----------2---------2-------|                     Play 2X
D |--2----------2--------------|
A |----------------------------|
E |----------------------------|


“You f***** up my life”
e |----------------------------|
B |-----0----------0-----------|
G |----------2---------2-------|                     Play 2X
D |--2----------2--------------|
A |----------------------------|
E |----------------------------|

[ Tab from: http://www.guitartabs.cc/tabs/b/blink_182/what_went_wrong_guitar_tab.html ]
Solo
e |------0---------------0-----------------0--------------0---------------------|
B |--------------2---------------2-----------------2--------------2-------------|
G |----2---2---2---2---2---2---2---2-----2---2---2---2--2---2---2---2-----------|
D |------------------------------------0-------0------0-------0-----------------|
A |-----------------------------------------------------------------------------|
E |--2-------2-------2-------2--------------------------------------------------|

e |------0---------------0------------------------------------------------------|
B |--------------2---------------2-------2-----2----2-2222222222----------------|
G |----2---2---2---2---2---2---2---2---2-----2--------2222222222----------------|
D |----------------------------------0-----0-----0----0000000000----------------|
A |--0-------0-------2-------2--------------------------------------------------|
E |-----------------------------------------------------------------------------|
Comments