Blink 182 - What Went Wrong Chords & Tabs

 

What Went Wrong Chords & Tabs

Blink 182 Chords & Tabs

Version: 3 Type: Chords 0 ratings
1 star 2 stars 3 stars 4 stars 5 stars
comments

What Went Wrong Chords

   
Blink 182, What Went Wrong.
 Tabbed by Matt, Mattaconda@aol.com.
  
Blink 182
What went wrong

standard tuning

chords used
   A  F#m  D5  E  E5 
E--0---2-------0-----
B--2---2-------0-----
G--2---2---7---1---9-
D--2---4---7---2---9-
A--0---4---5---2---7-
E--0---2-------0-----


intro               or    
E---------------        --------------
B---0-------0---        -7------7-----
G-----2-------2-        ---9-7----9-7-
D-2-------2-----        --------------
A---------------        --------------
E---------------        --------------

after playing the intro once add A F#m D5 and play the intro 2 more times before 1st verse


1st verse
A         F#m                E5                   D5                   
I'm sick, of always hearing, all those sad songs, on the radio
A        F#m                    E5                    D5    
All day, it is there to remind, an oversensitive guy, that hes lost and 
alone

play intro 2x with chords

A       F#m                  E5                D5  
I hate, a favorite resraunt, a favorite movie, or a favorite show
A         F#m                            E5                
we would, stay up all through the night, we would laugh and get high,
D5
and never answer the phone

[ Tab from: http://www.guitartabs.cc/tabs/b/blink_182/what_went_wrong_crd_ver_3.html ]
chorus
A          E            F#m                D5              A          
I can't forgive, can't forget, can't give in, what went wrong, cause 
       E          F#m        D5             A  
you said this was right, you f*cked up my life

play the intro 2x with chords 

A         F#m                E5                D5            A 
I'm sick, of always hearing, sappy love songs, on the radio, this place
F#m                                   E5                      D5
it's f*cking cursed and it's plagued, and I can never escape, when my 
heart it explodes

chorus

bridge
E-----0---------------0---------------0---------------0------------
B-------------2---------------2----------------2---------------2---
G---2---2---2---2---2---2---2---2----2---2---2---2---2---2---2---2-
D----------------------------------0-------0-------0-------0-------
A------------------------------------------------------------------
E-2-------2-------2-------2----------------------------------------

------0---------------0-----------------------------------
--------------2---------------2-------2-----2-----2-----2-
----2---2---2---2---2---2---2---2---2---2-------2---2-----
----------------------------------0-------0---0-------0---
--0-------0-------2-------2-------------------------------
----------------------------------------------------------

when you're done with that
play A F#m D5 like you do with the intro 

ending 4x
A                       
I'm kicking             
F#m                      
out fiercely           
D5                      
at the world           
A                     
around me              
F#m        D5           
what went wrong        

then this is the very end
A        
I'm kicking
 
:: Ultimate Guitar Archive :: 
http://www.ultimate-guitar.com 



Comments