Blink 182 - Wendy Clear[*] Chords & Tabs

 

Wendy Clear[*] Chords & Tabs

Blink 182 Chords & Tabs

Version: 6 Type: Tab 0 ratings
1 star 2 stars 3 stars 4 stars 5 stars
comments

Wendy Clear[*] Tab

Tabbed by ToRK 

Band: Blink182 
Song: Wendy Clear
Album: Enema of the State
E-mail: eved05@stdavids.co.za
Tuning: Standard (E)

Intro Riff:
e -------------------------
B -------------------------
G -------------------------
D ---5---0-3-2---5---0-3-2-
A -3---3-------3---3-------
E -------------------------

Verse:
e --------------------------------------    
B --------------------------------------
G -555555555555555---------------------- 
D -555555555555555-5-3333-7777-3333-5---
A -333333333333333-5-3333-7777-3333-5---
E -----------------3-1111-5555-1111-3---

Pre-Chorus:”, but I’d play with fire to break the ice..”
e --------------------------------------------------      
B --------------------------------------------------
G -----------55555555-----------55555555------------
D -5555-3333-55555555-5555-3333-55555555------------
A -5555-3333-33333333-5555-3333-33333333------------
E -3333-1111----------3333-1111---------------------
[ Tab from: http://www.guitartabs.cc/tabs/b/blink_182/wendy_clear_tab_ver_6.html ]
Chorus:“Is there something I’ll regret...” 
e ------------------------------------------------
B ------------------------------------------------
G -----------55555555-----------------------------
D -7777-3333-55555555-5555-7777-3333--------------
A -7777-3333-33333333-5555-7777-3333—Intro Riff---
E -5555-1111----------3333-5555-1111--------------

Bridge:” I’ll be movin’ on, movin’ on...”

e ------------------------------------------------------------------
B ------------------------------------------------------------------
G ---------------------5-5-------------------------------5555-------
D –5-5-------3-3-------5-5-break-5-5-------7-7-------3-3-5555-------
A –5-5-break-3-3-break-3-3-------5-5-break-7-7-break-3-3-3333-------
E –3-3-------1-1-----------------3-3-------5-5-------1-1------------   
PM|. . . . . . . . . . . . . . . . . . . . . . . . . . .|

Breakdown:
Intro Riff:X2
Verse1:X2
Pre-Chorus
Chorus
Intro Riff:X2
Verse2: No guitar
Pre-Chorus
Chorus
Bridge:X2
Intro Riff: X2
Pre-Chorus
Chorus
End on C

That’s the end. Enjoy. This is pretty accurate , .. I think.
Send any comments to me at eved05@stdavids.co.za

Later

ToRK
Comments