Blink 182 - Wendy Clear[*] Chords & Tabs

 

Wendy Clear[*] Chords & Tabs

Blink 182 Chords & Tabs

Version: 5 Type: Tab 0 ratings
1 star 2 stars 3 stars 4 stars 5 stars
comments

Wendy Clear[*] Tab

-------------------------------------------------------------------------------
			Wendy Clear - Blink 182
-------------------------------------------------------------------------------

Tabbed by: Nali182(@HOTMAIL.COM)
Album: Enema of the State
Tuning: Standard
Distortion: High

Intro
E|-----------------------------------------------------------|
B|-----------------------------------------------------------|
G|-----------------------------------------------------------|
D|----5------3-2---------------------------------------------|
A|--3----3-5-------------------------------------------------|
E|-----------------------------------------------------------|

Verse
E|-----------------------------------------------------------|
B|-----------------------------------------------------------|
G|--5555555555555555------------------------55555555---------|
D|--5555555555555555-5-33333333-7777-3333-5-55555555---------|
A|--3333333333333333-5-33333333-7777-3333-5-33333333---------|
E|-------------------3-11111111-5555-1111-3------------------|

Pre Chorus
E|-----------------------------------------------------------|
B|-----------------------------------------------------------|
G|------------------5-5-5-5-5-5-5-5--------------------------|
D|--5-5-5-5-3-3-3-3-5-5-5-5-5-5-5-5--------------------------|
A|--5-5-5-5-3-3-3-3-3-3-3-3-3-3-3-3--------------------------|
E|--3-3-3-3-1-1-1-1------------------------------------------|
[ Tab from: http://www.guitartabs.cc/tabs/b/blink_182/wendy_clear_tab_ver_5.html ]
Chorus
E|-----------------------------------------------------------|
B|-----------------------------------------------------------|
G|------------------5-5-5-5----------------------------------|
D|--7-7-7-7-3-3-3-3-5-5-5-5-5-5-5-5-7-7-7-7-3-3-3-3----------|
A|--7-7-7-7-3-3-3-3-3-3-3-3-5-5-5-5-7-7-7-7-3-3-3-3----------|
E|--5-5-5-5-1-1-1-1---------3-3-3-3-5-5-5-5-1-1-1-1----------|

Verse 2
E|-----------------------------------------------------------|
B|-----------------------------------------------------------|
G|------------------------------------------5-5-5-5-5-5-5-5--|
D|----------------------------------------5-5-5-5-5-5-5-5-5--|
A|----------------------------------------5-3-3-3-3-3-3-3-3--|
E|----------------------------------------3------------------|

Chorus 2
E|------------------------------------------------------------------|
B|------------------------------------------------------------------|
G|------------------5-5-5-5-------------------------5-5-5-5-5-5-5-5-|
D|--7-7-7-7-3-3-3-3-5-5-5-5-5-5-5-5-7-7-7-7-3-3-3-3-5-5-5-5-5-5-5-5-|
A|--7-7-7-7-3-3-3-3-3-3-3-3-5-5-5-5-7-7-7-7-3-3-3-3-3-3-3-3-3-3-3-3-|
E|--5-5-5-5-1-1-1-1---------3-3-3-3-5-5-5-5-1-1-1-1-----------------|

Bridge
E|-----------------------------------------------------------|
B|-----------------------------------------------------------|
G|--------------55----------------------5-5-5-5-5-5-5-5------|
D|--55----33----55----55----77----33----5-5-5-5-5-5-5-5------|
A|--55----33----33----55----77----33----3-3-3-3-3-3-3-3------|
E|--33----11----------33----55----11-------------------------|
PM  ....................................

Intro x4
Verse x2
Pre Chorus x2
Chorus
Intro x6
Verse (played by bass)
Verse 2
Pre Chorus x2
Chorus
Bridge x2
Intro x8
Pre Chorus x2
Chorus
Pre Chorus x4
Comments