Blink 182 - Wendy Clear[*] Chords & Tabs

 

Wendy Clear[*] Chords & Tabs

Blink 182 Chords & Tabs

Version: 3 Type: Tab 0 ratings
1 star 2 stars 3 stars 4 stars 5 stars
comments

Wendy Clear[*] Tab

   
Blink 182, Wendy Clear.
 Tabbed by Erik Casper      erik_is_superman@hotmail.com.
  
Blink 182
Enema of the State
Wendy Clear

intro:
e|------------|
B|------------|
G|------------|
D|--5-----3-2-|
A|-3--3-5-----|
E|------------|

verse:
e|--------------------------------------------|
B|--------------------------------------------|
G|555555555555555-----------------------------|
D|555555555555555-5-3-3-3-3-7-7-7-7-3-3-3-3-5-| X2
A|333333333333333-5-3-3-3-3-7-7-7-7-3-3-3-3-5-|
E|----------------3-1-1-1-1-5-5-5-5-1-1-1-1-5-|
[ Tab from: http://www.guitartabs.cc/tabs/b/blink_182/wendy_clear_tab_ver_3.html ]
chorus: \"I'd play with fire...\"
e|---------------------------------|
B|---------------------------------|
G|-----------------5-5-5-5-5-5-5-5-| X2
D|-5-5-5-5-3-3-3-3-5-5-5-5-5-5-5-5-|
A|-5-5-5-5-3-3-3-3-3-3-3-3-3-3-3-3-|
E|-3-3-3-3-1-1-1-1-----------------|
  
  \"is it something I'll regret...\"
e|-------------------------------------------------|
B|-------------------------------------------------|
G|-----------------5-5-5-5-------------------------|
D|-7-7-7-7-3-3-3-3-5-5-5-5-5-5-5-5-7-7-7-7-3-3-3-3-|
A|-7-7-7-7-3-3-3-3-3-3-3-3-5-5-5-5-7-7-7-7-3-3-3-3-|
E|-5-5-5-5-1-1-1-1---------3-3-3-3-5-5-5-5-1-1-1-1-|

bridge: \"I'll be movin' on...\"
e|-----------------------------------|
B|-----------------------------------|
G|-----------5-5---------------------|
D|-5-5--3-3--5-5--5-5--7-7--33333333-| X2
A|-5-5--3-3--3-3--5-5--7-7--33333333-|
E|-3-3--1-1-------3-3--5-5--11111111-|
*PM.......................

That's it. Just listen to the song to help you put it together! 
:: Ultimate Guitar Archive :: 
http://www.ultimate-guitar.com 



Comments