Blink 182 - Wendy Clear[*] Chords & Tabs

 

Wendy Clear[*] Chords & Tabs

Blink 182 Chords & Tabs

Version: 4 Type: Bass Tab 0 ratings
1 star 2 stars 3 stars 4 stars 5 stars
comments

Wendy Clear[*] Bass Tab

Hey, these are the correct tabs and they might be easier to read.


Intro: Let the guitar play for a little bit. Then

g---------------------------------------------------
d-------------------33333333333333333-555555-3333333
a--3333333333333333---------------------------------
e---------------------------------------------------

Verse:("Lets take the boat out on the bay you..")

g---------------------------------------------------
d---------------------------------------------------
a--33333333333333---------------000000000-----------
e----------------3-111111111111-----------11111111-3

Pre Chorus:("But Id play with fire to break...")

g---------------------------------------------------
d---------------------------------------------------
a--333333333333333----------------------------------
e------------------333333333333333-11111111111111111
[ Tab from: http://www.guitartabs.cc/tabs/b/blink_182/wendy_clear_btab_ver_4.html ]
g---------------------------------------------------
d---------------------------------------------------
a--3333333333333------------------------333333333333
e----------------33333333333-1111111111-------------

Chorus:("Is it something I'll regret or do you...")

g---------------------------------------------------
d---------------------------------------------------
a--00000000----------33333333----------000000-------
e-----------11111111----------333333333-------111111

Break:("Movin' on, Movin' on, Movin on and on...")

g---------------------------------------------------
d---------------------------------------------------
a----0-0-----3-3-----0-0----------------------------
e--------1-1-----3-3-----111111111111111111111111111

End:

g---------------------------------------------------
d---------------------------------------------------
a-------------3~------------------------------------
e-----3---1-----------------------------------------


Order:

Intro
Verse
Pre Chorus
Chorus
Verse
Pre Chorus
Chorus
Break
Verse
Pre Chorus
End
Comments