Blink 182 - Wendy Clear[*] Chords & Tabs

 

Wendy Clear[*] Chords & Tabs

Blink 182 Chords & Tabs

Version: 3 Type: Bass Tab 0 ratings
1 star 2 stars 3 stars 4 stars 5 stars
comments

Wendy Clear[*] Bass Tab

Title: Wendy Clear
Artist: blink-182
Tabbed by: Blake Rakoczi 
E-Mail: effromtheretardedrabbit@hotmail.com

~ = Let Ring

Intro - Note: Wait for guitar to play intro twice then play.  
G|-------------------------------------------------------------------
D|----------------------------------3-3-3-3-3-3-3-3-3-3-3-3-3-3-3-3--
A|-3-3-3-3-3-3-3-3-3-3-3-3-3-3-3-3----------------------------------- x1
E|-------------------------------------------------------------------

G|-------------------------------------------------------------------
D|-5-5-5-5-5-5-5-5--3-3-3-3-3-3-3-3----------------------------------
A|------------------------------------------------------------------- x1
E|-------------------------------------------------------------------

First Verse
G|-------------------------------------------------------------------
D|-------------------------------------------------------------------
A|-3-3-3-3-3-3-3-3-3-3-3-3-3-3-3-3----------------------------------- x1
E|----------------------------------3--1-1-1-1-1-1-1-1---------------

G|-------------------------------------------------------------------
D|-------------------------------------------------------------------
A|------------------------------------------------------------------- x1
E|-5-5-5-5--1-1-1-1--3-----------------------------------------------

G|-------------------------------------------------------------------
D|-------------------------------------------------------------------
A|-3-3-3-3-3-3-3-3-3-3-3-3-3-3-3-3-3-3-3-3-3-3-3-3------------------- x1
E|-------------------------------------------------------------------

G|-------------------------------------------------------------------
D|-------------------------------------------------------------------
A|------------------------------------------------------------------- x1
E|-3--1-1-1-1-1-1-1-1--5-5-5-5--1-1-1-1--3---------------------------

Chorus
G|-------------------------------------------------------------------
D|-------------------------------------------------------------------
A|-3-3-3-3-3-3-3-3--------------------------------------------------- x2
E|------------------3-3-3-3--1-1-1-1---------------------------------

G|-------------------------------------------------------------------
D|-------------------------------------------------------------------
A|-3-3-3-3-3-3-3-3--------------------3-3-3-3------------------------ x1
E|------------------5-5-5-5--1-1-1-1-----------3-3-3-3---------------

G|-------------------------------------------------------------------
D|-------------------------------------------------------------------
A|------------------------------------------------------------------- x1
E|-5-5-5-5--1-1-1-1--3-----------------------------------------------

Intro
G|-------------------------------------------------------------------
D|----------------------------------3-3-3-3-3-3-3-3-3-3-3-3-3-3-3-3--
A|-3-3-3-3-3-3-3-3-3-3-3-3-3-3-3-3----------------------------------- x1
E|-------------------------------------------------------------------

G|-------------------------------------------------------------------
D|-5-5-5-5-5-5-5-5--3-3-3-3-3-3-3-3----------------------------------
A|------------------------------------------------------------------- x1
E|-------------------------------------------------------------------
[ Tab from: http://www.guitartabs.cc/tabs/b/blink_182/wendy_clear_btab_ver_3.html ]
Second Verse
G|-------------------------------------------------------------------
D|-------------------------------------------------------------------
A|-3-3-3-3-3-3-3-3-3-3-3-3-3-3-3-3----------------------------------- x1
E|----------------------------------3--1-1-1-1-1-1-1-1---------------

G|-------------------------------------------------------------------
D|-------------------------------------------------------------------
A|------------------------------------------------------------------- x1
E|-5-5-5-5--1-1-1-1--3-----------------------------------------------

G|-------------------------------------------------------------------
D|-------------------------------------------------------------------
A|-3-3-3-3-3-3-3-3-3-3-3-3-3-3-3-3-3-3-3-3-3-3-3-3------------------- x1
E|-------------------------------------------------------------------

G|-------------------------------------------------------------------
D|-------------------------------------------------------------------
A|------------------------------------------------------------------- x1
E|-3--1-1-1-1-1-1-1-1--5-5-5-5--1-1-1-1--3---------------------------

Chorus
G|-------------------------------------------------------------------
D|-------------------------------------------------------------------
A|-3-3-3-3-3-3-3-3--------------------------------------------------- x2
E|------------------3-3-3-3--1-1-1-1---------------------------------

G|-------------------------------------------------------------------
D|-------------------------------------------------------------------
A|-3-3-3-3-3-3-3-3--------------------3-3-3-3------------------------ x1
E|------------------5-5-5-5--1-1-1-1-----------3-3-3-3---------------

G|-------------------------------------------------------------------
D|-------------------------------------------------------------------
A|------------------------------------------------------------------- x1
E|-5-5-5-5--1-1-1-1--3-----------------------------------------------

Bridge
G|-------------------------------------------------------------------
D|-------------------------------------------------------------------
A|-3-3-3-3-3-3-3-3----------33--------------------------------------- x2
E|------------------55--11------33--55--11---------------------------

G|-------------------------------------------------------------------
D|----------------------------------3-3-3-3-3-3-3-3-3-3-3-3-3-3-3-3--
A|-3-3-3-3-3-3-3-3-3-3-3-3-3-3-3-3----------------------------------- x1
E|-------------------------------------------------------------------

G|-------------------------------------------------------------------
D|-5-5-5-5-5-5-5-5--3-3-3-3-3-3-3-3----------------------------------
A|-----------------------------------3-3-3-3-3-3-3-3-3-3-3-3-3-3-3-3- x1
E|-------------------------------------------------------------------

Note: Guitar plays by itself here.

Outro
G|-------------------------------------------------------------------
D|-------------------------------------------------------------------
A|-3-3-3-3-3-3-3-3--------------------------------------------------- x2
E|------------------3-3-3-3--1-1-1-1---------------------------------

G|-------------------------------------------------------------------
D|-------------------------------------------------------------------
A|-3-3-3-3-3-3-3-3--------------------------------------------------- x1
E|------------------3~~~~--1~~~~-------------------------------------

End On
G|-------------------------------------------------------------------
D|-------------------------------------------------------------------
A|-3~~~~------------------------------------------------------------- x1
E|-------------------------------------------------------------------
Comments