Blink 182 - Wasting Time Chords & Tabs

 

Wasting Time Chords & Tabs

Blink 182 Chords & Tabs

Version: 8 Type: Tab 0 ratings
1 star 2 stars 3 stars 4 stars 5 stars
comments

Wasting Time Tab

   
Artist: Blink 182
Song: Wasting time
Tuning: Standard (E,A,D,G,B,E)
ftolone@hotmail.com

I don't know if this tab is 100% right, but the intro sounds really closer to the song 
than the other versions. Mail me any corrections

Intro
e|------------------------------------------------------| 
B|------------------------------------------------------| 
G|------------------------------------------------------| 
D|-----9-7-6--------6-7-9-7-6-----6--7-6-4--------------|
A|---7-------7--7-7------------4-4-4-------4--9-7-9-9-7-| 
E|-0----------------------------------------------------|   
[ Tab from: http://www.guitartabs.cc/tabs/b/blink_182/wasting_time_tab_ver_8.html ]
Verse  
e|--------------------------------------------| 
B|--------------------------------------------| 
G|--------------66666-44444-------------------| 
D|-7x-777-22222-66666-44444-------------------|
A|-7x-777-22222-44444-22222-------------------| 
E|-5x-555-00000-------------------------------|   
   
Pre-Main Riff
e|----------------------------------------------------------
B|-----------------------------------------10-------10-10---
G|--------------66666666-44444444-22222222----9---9-------9-
D|-7x-777-22222-66666666-44444444-22222222------7----------7
A|-7x-555-22222-44444444-22222222-00000000------------------
E|-5x-555-00000---------------------------------------------

Chorus (A)

e|--------------------------------------------|
B|--------------------------------------------|
G|-------22222--66666--44444------------------|
D|-22222-22222--66666--44444------------------|
A|-22222-00000--44444--22222------------------|
E|-00000--------------------------------------|

Chorus (B)

e|--------------------------------------------|
B|--------------------------------------------|
G|-------2xxxx--6xxxx--4xxxx------------------|
D|-2xxxx-2xxxx--6xxxx--4xxxx------------------|
A|-2xxxx-0xxxx--4xxxx--2xxxx------------------|
E|-0xxxx--------------------------------------|
  ^-----Play With Heavy Palm Muting------^

End (Let Ring)

e|-----------|
B|-----------|
G|-2---------|
D|-2---------|
A|-0---------|
E|-----------|
Comments