Blink 182 - Voyeur Chords & Tabs

 

Voyeur Chords & Tabs

Blink 182 Chords & Tabs

Version: 1 Type: Tab 0 ratings
1 star 2 stars 3 stars 4 stars 5 stars
comments

Voyeur Tab

Blink-182
Voyeur

Intro/Verse1:
e|------------------|------------------|-----------------|------------------|
B|------------------|------------------|-----------------|------------------|
G|:-----------------|------------------|-----------------|-----------------:|
D|:10--x-x--x-x-x-x-|-x-x-x-x--x-x-x-x-|-7--x-x--x-x-x-x-|-10--x-x--x-x-x-x:|
A|-10--x-x--x-x-x-x-|-x-x-x-x--x-x-x-x-|-7--x-x--x-x-x-x-|-8---x-x--x-x-x-x-|
E|-8---x-x--x-x-x-x-|-x-x-x-x--x-x-x-x-|-5--x-x--x-x-x-x-|-8---x-x--x-x-x-x-|

e|------------------------|--------------------------|-----------------|-----------------|
B|------------------------|--------------------------|-----------------|-----------------|
G|:-----------------------|--------------------------|-----------------|----------------:|
D|:10--10-10--10-10-10-10-|-10-10-10-10--10-10-10-10-|-7--7-7--7-7-7-7-|-3--3-3--3-3-3-3:|
A|-10--10-10--10-10-10-10-|-10-10-10-10--10-10-10-10-|-7--7-7--7-7-7-7-|-3--3-3--3-3-3-3-|
E|-8---8--8---8--8--8--8--|-8--8--8--8---8--8--8--8--|-5--5-5--5-5-5-5-|-1--1-1--1-1-1-1-|

e|------------------|------------------|
B|------------------|------------------|
G|------------------|------------------|
D|-3-3-3-3--3-3-3-3-|-3-3-3-3--3-3-3-3-|
A|-3-3-3-3--3-3-3-3-|-3-3-3-3--3-3-3-3-|
E|-1-1-1-1--1-1-1-1-|-1-1-1-1--1-1-1-1-|

Chorus:
                                       P.M.----      P.M.----
e|-----------------|-----------------|-------------|-------------|
B|-----------------|-----------------|-------------|-------------|
G|-----------------|-----------------|-------------|-------------|
D|-5--5-5--5-5-5-5-|-3--3-3--3-3-3-3-|-2-2--2-2--3-|-2-2--2-2--5-|
A|-5--5-5--5-5-5-5-|-3--3-3--3-3-3-3-|-3-3--3-3----|-3-3--3-3--5-|
E|-3--3-3--3-3-3-3-|-1--1-1--1-1-1-1-|-------------|-----------3-|

e|-----------------|-----------------|-----------------|-----------------|
B|-----------------|-----------------|-----------------|-----------------|
G|:----------------|-----------------|-5--5-5--5-5-5-5-|----------------:|
D|:5--5-5--5-5-5-5-|-3--3-3--3-3-3-3-|-5--5-5--5-5-5-5-|-5--5-5--5-5-5-5:|
A|-5--5-5--5-5-5-5-|-3--3-3--3-3-3-3-|-3--3-3--3-3-3-3-|-5--5-5--5-5-5-5-|
E|-3--3-3--3-3-3-3-|-1--1-1--1-1-1-1-|-----------------|-3--3-3--3-3-3-3-|

                                       P.M.----      P.M.---- 
e|-----------------|-----------------|-------------|-------------|
B|-----------------|-----------------|-------------|-------------|
G|-----------------|-----------------|-------------|-------------|
D|-5--5-5--5-5-5-5-|-3--3-3--3-3-3-3-|-2-2--2-2--3-|-2-2--2-2--5-|
A|-5--5-5--5-5-5-5-|-3--3-3--3-3-3-3-|-3-3--3-3----|-3-3--3-3--5-|
E|-3--3-3--3-3-3-3-|-1--1-1--1-1-1-1-|-------------|-----------3-|

   P.M.----      P.M.----
e|-------------|-------------|
B|-------------|-------------|
G|-------------|-------------|
D|-2-2--2-2--3-|-2-2--2-2--5-|
A|-3-3--3-3----|-3-3--3-3--5-|
E|-------------|-----------3-|

Verse2:
e|------------------|------------------|-----------------|------------------|
B|------------------|------------------|-----------------|------------------|
G|:-----------------|------------------|-----------------|-----------------:|
D|:10--x-x--x-x-x-x-|-x-x-x-x--x-x-x-x-|-7--x-x--x-x-x-x-|-10--x-x--x-x-x-x:|
A|-10--x-x--x-x-x-x-|-x-x-x-x--x-x-x-x-|-7--x-x--x-x-x-x-|-8---x-x--x-x-x-x-|
E|-8---x-x--x-x-x-x-|-x-x-x-x--x-x-x-x-|-5--x-x--x-x-x-x-|-8---x-x--x-x-x-x-|

e|------------------------|--------------------------|-----------------|-----------------|
B|------------------------|--------------------------|-----------------|-----------------|
G|:-----------------------|--------------------------|-----------------|----------------:|
D|:10--10-10--10-10-10-10-|-10-10-10-10--10-10-10-10-|-7--7-7--7-7-7-7-|-3--3-3--3-3-3-3:|
A|-10--10-10--10-10-10-10-|-10-10-10-10--10-10-10-10-|-7--7-7--7-7-7-7-|-3--3-3--3-3-3-3-|
E|-8---8--8---8--8--8--8--|-8--8--8--8---8--8--8--8--|-5--5-5--5-5-5-5-|-1--1-1--1-1-1-1-|

e|------------------|------------------|
B|------------------|------------------|
G|------------------|------------------|
D|-3-3-3-3--3-3-3-3-|-3-3-3-3--3-3-3-3-|
A|-3-3-3-3--3-3-3-3-|-3-3-3-3--3-3-3-3-|
E|-1-1-1-1--1-1-1-1-|-1-1-1-1--1-1-1-1-|

Chorus:
                                       P.M.----      P.M.----
e|-----------------|-----------------|-------------|-------------|
B|-----------------|-----------------|-------------|-------------|
G|-----------------|-----------------|-------------|-------------|
D|-5--5-5--5-5-5-5-|-3--3-3--3-3-3-3-|-2-2--2-2--3-|-2-2--2-2--5-|
A|-5--5-5--5-5-5-5-|-3--3-3--3-3-3-3-|-3-3--3-3----|-3-3--3-3--5-|
E|-3--3-3--3-3-3-3-|-1--1-1--1-1-1-1-|-------------|-----------3-|

e|-----------------|-----------------|-----------------|-----------------|
B|-----------------|-----------------|-----------------|-----------------|
G|:----------------|-----------------|-5--5-5--5-5-5-5-|----------------:|
D|:5--5-5--5-5-5-5-|-3--3-3--3-3-3-3-|-5--5-5--5-5-5-5-|-5--5-5--5-5-5-5:|
A|-5--5-5--5-5-5-5-|-3--3-3--3-3-3-3-|-3--3-3--3-3-3-3-|-5--5-5--5-5-5-5-|
E|-3--3-3--3-3-3-3-|-1--1-1--1-1-1-1-|-----------------|-3--3-3--3-3-3-3-|

                                       P.M.----      P.M.---- 
e|-----------------|-----------------|-------------|-------------|
B|-----------------|-----------------|-------------|-------------|
G|-----------------|-----------------|-------------|-------------|
D|-5--5-5--5-5-5-5-|-3--3-3--3-3-3-3-|-2-2--2-2--3-|-2-2--2-2--5-|
A|-5--5-5--5-5-5-5-|-3--3-3--3-3-3-3-|-3-3--3-3----|-3-3--3-3--5-|
E|-3--3-3--3-3-3-3-|-1--1-1--1-1-1-1-|-------------|-----------3-|

   P.M.----      P.M.----
e|-------------|-------------|
B|-------------|-------------|
G|-------------|-------------|
D|-2-2--2-2--3-|-2-2--2-2--5-|
A|-3-3--3-3----|-3-3--3-3--5-|
E|-------------|-----------3-|
[ Tab from: http://www.guitartabs.cc/tabs/b/blink_182/voyeur_tab.html ]
Bridge:
e|-----------------|-----------------|-----------------|-----------------|
B|-----------------|-----------------|-----------------|-----------------|
G|:5--5-5--5-5-5-5-|-----------------|-----------------|----------------:|
D|:5--5-5--5-5-5-5-|-3--3-3--3-3-3-3-|-5--5-5--5-5-5-5-|-3--3-3--3-3-3-3:|
A|-3--3-3--3-3-3-3-|-3--3-3--3-3-3-3-|-5--5-5--5-5-5-5-|-3--3-3--3-3-3-3-|
E|-----------------|-1--1-1--1-1-1-1-|-3--3-3--3-3-3-3-|-1--1-1--1-1-1-1-|
Repeat twice 

e|-----------------|-----------|------------|
B|-----------------|-----------|------------|
G|-----------------|-----------|------------|
D|-----------------|-----------|------------|
A|-----------------|-3p2-------|------------|
E|-----------------|------3--3-|-3--3--3--3-|

Verse3:
e|------------------|------------------|-----------------|------------------|
B|------------------|------------------|-----------------|------------------|
G|:-----------------|------------------|-----------------|-----------------:|
D|:10--x-x--x-x-x-x-|-x-x-x-x--x-x-x-x-|-7--x-x--x-x-x-x-|-10--x-x--x-x-x-x:|
A|-10--x-x--x-x-x-x-|-x-x-x-x--x-x-x-x-|-7--x-x--x-x-x-x-|-8---x-x--x-x-x-x-|
E|-8---x-x--x-x-x-x-|-x-x-x-x--x-x-x-x-|-5--x-x--x-x-x-x-|-8---x-x--x-x-x-x-|

e|------------------------|--------------------------|-----------------|-----------------|
B|------------------------|--------------------------|-----------------|-----------------|
G|:-----------------------|--------------------------|-----------------|----------------:|
D|:10--10-10--10-10-10-10-|-10-10-10-10--10-10-10-10-|-7--7-7--7-7-7-7-|-3--3-3--3-3-3-3:|
A|-10--10-10--10-10-10-10-|-10-10-10-10--10-10-10-10-|-7--7-7--7-7-7-7-|-3--3-3--3-3-3-3-|
E|-8---8--8---8--8--8--8--|-8--8--8--8---8--8--8--8--|-5--5-5--5-5-5-5-|-1--1-1--1-1-1-1-|

e|------------------|------------------|
B|------------------|------------------|
G|------------------|------------------|
D|-3-3-3-3--3-3-3-3-|-3-3-3-3--3-3-3-3-|
A|-3-3-3-3--3-3-3-3-|-3-3-3-3--3-3-3-3-|
E|-1-1-1-1--1-1-1-1-|-1-1-1-1--1-1-1-1-|

Chorus:
                                       P.M.----      P.M.----
e|-----------------|-----------------|-------------|-------------|
B|-----------------|-----------------|-------------|-------------|
G|-----------------|-----------------|-------------|-------------|
D|-5--5-5--5-5-5-5-|-3--3-3--3-3-3-3-|-2-2--2-2--3-|-2-2--2-2--5-|
A|-5--5-5--5-5-5-5-|-3--3-3--3-3-3-3-|-3-3--3-3----|-3-3--3-3--5-|
E|-3--3-3--3-3-3-3-|-1--1-1--1-1-1-1-|-------------|-----------3-|

e|-----------------|-----------------|-----------------|-----------------|
B|-----------------|-----------------|-----------------|-----------------|
G|:----------------|-----------------|-5--5-5--5-5-5-5-|----------------:|
D|:5--5-5--5-5-5-5-|-3--3-3--3-3-3-3-|-5--5-5--5-5-5-5-|-5--5-5--5-5-5-5:|
A|-5--5-5--5-5-5-5-|-3--3-3--3-3-3-3-|-3--3-3--3-3-3-3-|-5--5-5--5-5-5-5-|
E|-3--3-3--3-3-3-3-|-1--1-1--1-1-1-1-|-----------------|-3--3-3--3-3-3-3-|

                                       P.M.----      P.M.---- 
e|-----------------|-----------------|-------------|-------------|
B|-----------------|-----------------|-------------|-------------|
G|-----------------|-----------------|-------------|-------------|
D|-5--5-5--5-5-5-5-|-3--3-3--3-3-3-3-|-2-2--2-2--3-|-2-2--2-2--5-|
A|-5--5-5--5-5-5-5-|-3--3-3--3-3-3-3-|-3-3--3-3----|-3-3--3-3--5-|
E|-3--3-3--3-3-3-3-|-1--1-1--1-1-1-1-|-------------|-----------3-|

   P.M.----      P.M.----
e|-------------|-------------|
B|-------------|-------------|
G|-------------|-------------|
D|-2-2--2-2--3-|-2-2--2-2--5-|
A|-3-3--3-3----|-3-3--3-3--5-|
E|-------------|-----------3-|

Bridge:
e|-----------------|-----------------|-----------------|-----------------|
B|-----------------|-----------------|-----------------|-----------------|
G|:5--5-5--5-5-5-5-|-----------------|-----------------|----------------:|
D|:5--5-5--5-5-5-5-|-3--3-3--3-3-3-3-|-5--5-5--5-5-5-5-|-3--3-3--3-3-3-3:|
A|-3--3-3--3-3-3-3-|-3--3-3--3-3-3-3-|-5--5-5--5-5-5-5-|-3--3-3--3-3-3-3-|
E|-----------------|-1--1-1--1-1-1-1-|-3--3-3--3-3-3-3-|-1--1-1--1-1-1-1-|
Repeat twice 

e|-----------------|-----------|------------|--------|
B|-----------------|-----------|------------|--------|
G|-----------------|-----------|------------|--------|
D|-----------------|-----------|------------|-3-3----|
A|-----------------|-3p2-------|------------|-3-3----|
E|-----------------|------3--3-|-3--3--3--3-|-1-1----|

e|-----------------------------------|-----------------------------------|
B|-----------------------------------|-----------------------------------|
G|-----------------------------------|-----------------------------------|
D|-----------------------------------|-----------------------------------|
A|-8-8-8-------10-10-10--8-8-8----10-|-8-8-8-------10-10-10--8-8-8----10-|
E|-------8-8-8-----------------8-----|-------8-8-8-----------------8-----|

e|-----------------|
B|-----------------|
G|-----------------|
D|-----------------|
A|-----------------|
E|-------------8\--|

Outro:
e|-----------------|------------|-----------------|------------|
B|-----------------|------------|-----------------|------------|
G|-------5--5------|-------5----|-------5--5------|-------5----|
D|-3--3--5--5--5-5-|-3--3--5--5-|-3--3--5--5--5-5-|-3--3--5--5-|
A|-3--3--3--3--5-5-|-3--3--3--5-|-3--3--3--3--5-5-|-3--3--3--5-|
E|-1--1--------3-3-|-1--1-----3-|-1--1--------3-3-|-1--1-----3-|

e|-----------------|------------|---------------|------------|
B|-----------------|------------|---------------|------------|
G|-------5--5------|-------5----|-------5--5----|-------5----|
D|-3--3--5--5--5-5-|-3--3--5--5-|-3--3--5--5--5~|-3--3--5--5-|
A|-3--3--3--3--5-5-|-3--3--3--5-|-3--3--3--3--5~|-3--3--3--5-|
E|-1--1--------3-3-|-1--1-----3-|-1--1--------3~|-1--3-----3-|

   P.M.------      P.M.------      P.M.------      P.M.------
e|---------------|---------------|---------------|---------------|-----|
B|---------------|---------------|---------------|---------------|-----|
G|---------------|---------------|---------------|---------------|-5~~-|
D|-2--2--2--2--3-|-2--2--2--2--5-|-2--2--2--2--3-|-2--2--2--2--5-|-5~~-|
A|-3--3--3--3----|-3--3--3--3--5-|-3--3--3--3----|-3--3--3--3--5-|-3~~-|
E|---------------|-------------3-|---------------|-------------3-|-----|
Comments