Blink 182 - Violence Chords & Tabs

 

Violence Chords & Tabs

Blink 182 Chords & Tabs

Version: 7 Type: Tab 0 ratings
1 star 2 stars 3 stars 4 stars 5 stars
comments

Violence Tab

   
Blink 182
Violence
Tuned 1/2 step down
Tabbed By : gair182

Any questions, comments or hate mail, send it to gair182@hotmail.com. :D

Intro:

eb|---------------------------------|  |-----------------------|
bb|---------------------------------|  |-----------------------|
gb|-5-5555555555555555555555-555555-|x2|-5-5555555555555555555-|
db|-x-xxxxxxxxxxxxxxxxxxxxxx-555555-|  |-x-xxxxxxxxxxxxxxxxxxx-|
ab|-3-3333333333333333333333-333333-|  |-3-3333333333333333333-|
Eb|---------------------------------|  |-----------------------|
     \______________________/--------> Bend and release continuously

Chorus Riff:

eb|-------------------------------------|
bb|-------------------------------------|
gb|-55555555-77777777-22222222-44444444-|x2
db|-55555555-77777777-22222222-55555555-|
ab|-33333333-55555555-00000000-22222222-|
Eb|-------------------------------------|

No guitar in verse

6 bottles went down the drain, 
one hours waste of time, 
Iíd ask if you feel the same, 
still pushing that chance to try, 
your breath in this cool room chill, 
long hair that blows side to side, 
you speak and make time stand still, 
and each time walk right on byÖ

Chorus :

eb|-------------------------------------------------------|
bb|-------------------------------------------------------|
gb|-55555555---------77777777------22222222--44444444-----|x2
db|-55555555---------77777777------22222222--55555555-----|
ab|-33333333---------55555555------00000000--22222222-----|
Eb|-------------------------------------------------------|
        Like Violence - You have me - Forever - And after
        Like Violence - You kill me - Forever - And after

No guitar in verse

Canít count all the eyes that stare, 
canít count all the things they see, 
she kills a life to spare, 
just victims left to bleed, 
one drink and the pain goes down, 
soft shadows lay by her feet, 
lay soft as you slowly drown, 
lay still while you fall asleep. (Fall asleep)

Chorus :
[ Tab from: http://www.guitartabs.cc/tabs/b/blink_182/violence_tab_ver_7.html ]
eb|-------------------------------------------------------|
bb|-------------------------------------------------------|
gb|-55555555---------77777777------22222222--44444444-----|x2
db|-55555555---------77777777------22222222--55555555-----|
ab|-33333333---------55555555------00000000--22222222-----|
Eb|-------------------------------------------------------|
        Like Violence - You have me - Forever - And after
        Like Violence - You kill me - Forever - And after

Interlude :

eb|---| |----------------------------------------------------------------|
bb|---| |----------------------------------------------------------------|
gb|-5-| |----------------------------------------------------------------|x5
db|-5-| |----------------------------------------------------------------|
ab|-3-| |-----7-----7---7-----5-----5---5-----3----3---3-----3-----3---3-|
Eb|---| |-8-8---8-8---8---3-3---3-3---3---0-0--0-0---0---1-1---1-1---1---|
          And after......... And after.....And after.........               
                                            Like violence you have me
                   Forever and after........Like violence you kill me
          Like violence..........You have me...Forever......and after
          Like violence..........You kill me...Like violence you kill me

Chorus :

eb|-------------------------------------------------------|
bb|-------------------------------------------------------|
gb|-55555555---------77777777------22222222--44444444-----|x4
db|-55555555---------77777777------22222222--55555555-----|
ab|-33333333---------55555555------00000000--22222222-----|
Eb|-------------------------------------------------------|
        Like Violence - You have me - Forever - And after
        Like Violence - You kill me - Forever - And after
        Like Violence - You have me - Forever - And after
        Like Violence - You kill me - Forever - And after

Outro :

eb|-----------------------------------------------------------------------|
bb|-----------------------------------------------------------------------|
gb|-5-555555555555555555555555555555555-4-4444444444-3-3333333333---------|
db|-x-xxxxxxxxxxxxxxxxxxxxxxxxxxxxxxxxx-x-xxxxxxxxxx-x-xxxxxxxxxx-5-55555-|
ab|-3-333333333333333333333333333333333-2-2222222222-1-1111111111-x-xxxxx-|
Eb|---------------------------------------------------------------3-33333-|
     \_________________________________/ \__________/ \__________/ \_____/
         
eb|-----------|
bb|-----------|
gb|-----------|
db|-3-33333---|
ab|-x-xxxxx---|
Eb|-1-11111-0-|
     \_____/
Comments