Blink 182 - Violence Chords & Tabs

 

Violence Chords & Tabs

Blink 182 Chords & Tabs

Version: 2 Type: Tab 0 ratings
1 star 2 stars 3 stars 4 stars 5 stars
comments

Violence Tab

   
Violence
Artist : Blink 182
Album : Blink 182
Tabed by : atawb
Tuning: (E A D G B E)

b= Bend up and down

Intro/Outro
e|-----------------------|
B|-----------------------|
G|-----------------------|
D|-----------------------|x12
A|--b2-2-2---2-2-2-2-2---|           
E|-----------------------|

Chorus/Bridge
e|-------------------------------------------------------------------------|
B|-------------------------------------------------------------------------|
G|--4-4-4-4-4-4-4-4---6-6-6-6-6-6-6-6--------------------------------------|
D|--4-4-4-4-4-4-4-4---6-6-6-6-6-6-6-6---6-6-6-6-6-6-6-6---8-8-8-8-8-8-8-8--|x2
A|--2-2-2-2-2-2-2-2---4-4-4-4-4-4-4-4---6-6-6-6-6-6-6-6---8-8-8-8-8-8-8-8--|
E|--------------------------------------4-4-4-4-4-4-4-4---6-6-6-6-6-6-6-6--|
[ Tab from: http://www.guitartabs.cc/tabs/b/blink_182/violence_tab_ver_2.html ]
Interlude
e|-----------------------------------------------------------------|
B|-----------------------------------------------------------------|
G|-----------------------------------------------------------------|
D|-----------------------------------------------------------------|x1
A|------2----2----------2----2----------4----4----------2----2-----|         
E|--4-4--4-4--4-4---0-0--0-0--0-0---2-2--2-2--2-2---0-0--0-0--0-0--|

e|---------------------------------------------------------------------------------|
B|---------------------------------------------------------------------------------|
G|---------------------------------------------------------------------------------|
D|---------------------------------------------------------------------------------|x4
A|-------6----6---------2----2----------4----4----------2----2----------2----2-----|         
E|---4-4--4-4--4-4--0-0--0-0--0-0---2-2--2-2--2-2---0-0--0-0--0-0---0-0--0-0--0-0--|

Intro
Bridge
Verse*
Chorus
Verse*
Chorus
Interlude
Chorus x2
Outro

*Verse is played on bass
Comments