Blink 182 - Violence Chords & Tabs

 

Violence Chords & Tabs

Blink 182 Chords & Tabs

Version: 1 Type: Bass Tab 0 ratings
1 star 2 stars 3 stars 4 stars 5 stars
comments

Violence Bass Tab

   
Pretty easy, even for a blink song
pretty weird to, not so straightforward
anyways songs called violence off the new
self-titled album
you can download this on either blink-182online.com
or first182.com

E A D G

Chorus/pre-verse (you can figure out rhythm for this part)
--------------------------------
--------------------------------
2-------4-----------------------
----------------4-------6-------

About the easiest verse by blink youll here in your 
entire life, which is saying something
--------------------------------
----------------1---------------
2-----------------------2-------
--------------------------------

(the last note is a stacatto, the first two will
 ring out)

Pre-Chorus 
-------------
-------------
2-2222-2-2222
-------------
[ Tab from: http://www.guitartabs.cc/tabs/b/blink_182/violence_btab.html ]
Bridge (might be guitar, but chances are
        mark will play it live, so-)
---------------------------
----13----13--13--11--11-11
1414--1414--14--99--99--9--
---------------------------

----------------
--8--8-8--9--9-9
66-66-6-77-77-7-
----------------

Order:
Chorus x2
Break
Verse x4
Pre-Chorus 
Chorus x2
Break
Verse x4
Chorus x2
Bridge x8
Chorus x4

Lyrics:
Verse 1:
Six bottles went down the drain
One hour's a waste of time
I'd ask if you feel the same
Still pushin that chance to try
Your breath and its coolroom chill
Long hair that blows side to side
You speak to me time stands still 
And each time walk right on by

Chorus:
Like violence
You have me
Forever and after
Like violence
You kill me
Forever and after

Verse 2:
Can't count all the eyes that stare
Can't count all the things they see
She kills and the life despair
Just victims are left to bleed
One drink of the pain goes down
Soft shadows lay by her feet
Lay soft as you slowly drown
Lay still as you fall asleep
(Fall asleep)
Comments