Blink 182 - Untitled Chords & Tabs

 

Untitled Chords & Tabs

Blink 182 Chords & Tabs

Version: 3 Type: Tab 0 ratings
1 star 2 stars 3 stars 4 stars 5 stars
comments

Untitled Tab

-------------------------------------------------------------------------------
                                      blink 182
-------------------------------------------------------------------------------
song: untitled
artist: blink 182
album: The Mark, Tom And Tavis Show
Guitarist: Tom DeLonge
tabbed by: sam shwalbe

 order
-------------------- 
verse 1 x6
chorus 1
build up x2
verse 2 x4
chorus 2 x2
interlude
chorus 2 x2
ending

(verse 1)(clean)
e|---------------------------------------------------------------------------|
B|---------------------------------------------------------------------------|
G|--44444--444444------------------------------------------------------------|
D|--44444--444444--22222--444444---------------------------------------------|
A|--22222--222222--22222--444444---------------------------------------------|
E|-----------------00000--222222---------------------------------------------|
pm  .....  ......  .....  ......

(chorus 1)(clean)
e|---------------------------------------------------------------------------|
B|---------------------------------------------------------------------------|
G|--4--89--9/4--4/6--6/8--8/9--9/4--4/6--4-----------------------------------|
D|--x--xx--x/x--x/x--x/x--x/x--x/x--x/x--x-----------------------------------|
A|--2--67--7/2--2/4--4/6--6/7--7/2--2/4--2-----------------------------------|
E|---------------------------------------------------------------------------|

(build up)(heavy distortion)
e|---------------------------------------------------------------------------|
B|---------------------------------------------------------------------------|
G|--4-4-444---------------------9-8-9----------------------------------------|
D|--4-4-444--6-6-666--4-4-444---9-8-9----------------------------------------|
A|--2-2-222--6-6-666--4-4-444---7-6-7----------------------------------------|
E|-----------4-4-444--2-2-222------------------------------------------------|

(verse 2) (distortion)
e|---------------------------------------------------------------------------|
B|---------------------------------------------------------------------------|
G|--44444444-----------------------------------------------------------------|
D|--44444444--2222--4444-----------------------------------------------------|
A|--22222222--2222--4444-----------------------------------------------------|
E|------------0000--2222-----------------------------------------------------|
[ Tab from: http://www.guitartabs.cc/tabs/b/blink_182/untitled_tab_ver_3.html ]
(chorus 2) (distortion)
e|---------------------------------------------------------------------------|
B|---------------------------------------------------------------------------|
G|----------------------44444444-------------play-------2nd-time-------------|
D|--66666666--22222222--44444444--44444444-------222222-before interlude-----|
A|--66666666--22222222--22222222--44444444-------222222----------------------|
E|--44444444--00000000------------22222222-------000000----------------------|

(interlude) (distortion)
e|---------------------------------------------------------------------------|
B|------------play-this-4-times----------------------------------------------|
G|-----------------------------then-play-------------------------------------|
D|----1-4-1-2-1---1-4-1-2-1---------------------9999999999999999--9----------|
A|--2-------------------------------------------xxxxxxxxxxxxxxxx--9----------|
E|--------------0-------------------------------7777777777777777--7----------|
pm  . .   . . . . .   . . .           soft pm   ................

(ending) (distortion)
e|---------------------------------------------------------------------------|
B|---------------------------------------------------------------------------|
G|-44444444-9-8-9-44-666666--9-8-9-44444444--9-8-9-44-666666--8-6------------|
D|-44444444-9-8-9-44-666666--9-8-9-44444444--9-8-9-44-666666--8-6------------|
A|-22222222-7-6-7-22-444444--7-6-7-22222222--7-6-7-22-444444--6-4------------|
E|---------------------------------------------------------------------------|

e|---------------------------------------------------------------------------|
B|---------------------------------------------------------------------------|
G|-44444444-9-8-9-44-666666--444---------------------------------------------|
D|-44444444-9-8-9-44-666666--444---------------------------------------------|
A|-22222222-7-6-7-22-444444--222---------------------------------------------|
E|---------------------------------------------------------------------------|

lyrics
---------------------------
I think of a while ago we might've had it all
I was so stupid then you needed time to grow 
but now just as thing change aswell my feelings do 
in time things re-arrange I am so sick of chasing you

but what do I get 'cos I just seem to lose
you make me regret those times I spent with you 
and playing those games as I wait for your call
now I give up so good-bye and so-long

it's not a change of pace this time I'll get it right
it's not a change of taste I was the one there last night
you have your other friends they were there when you cry
didn't mean to hurt you then best friends just won't leave your side

but what do I get 'cos I just seem to lose
you make me regret those times I spent with you 
and playing those games as I wait for your call
now I give up so good-bye and so-long

it's not a change of pace this time I'll get it right
it's not a change of taste I was the one there last night
when I needed you most when I needed a friend
you let me down now like I let you down then
so sorry it's over
Comments