Blink 182 - Tv Chords & Tabs

 

Tv Chords & Tabs

Blink 182 Chords & Tabs

Version: 4 Type: Tab 0 ratings
1 star 2 stars 3 stars 4 stars 5 stars
comments

Tv Tab

do it very fast!

E=-------------------------------------------------:
B=-------------------------------------------------:
G=-------------7-----7-----7-----------------------:
D=-----7-----7-7---7-----7-------------------------:
A=---7-----7---5-5-----5---------------------------:
e=-5-----5-----------------------------------------:

[ Tab from: http://www.guitartabs.cc/tabs/b/blink_182/tv_tab_ver_4.html ]
E=---------------------------------------------------:
B=---------------------------------------------------:
G=---------------7-----7-----7-----------------------:
D=-7-----7-----7-7---7-----7-------------------------:
A=-7---7-----7---5-5-----5---------------------------:
e=-5-5-----5-----------------------------------------:
E=---------------------------------------------------:


E=---------------------------------------------------:
B=---------------------------------------------------:
G=------------7---7----------------------------------:
D=-7---7------7--------------------------------------: 2 times
A=-7----------5-5---5--------------------------------:
e=-5-5---5-------------------------------------------:

E=--------------------------------------------------:
B=--------------------------------------------------:
G=------------7-------------------------------------:
D=----7---------------------------------------------: 2 times
A=----------5---5-----------------------------------:
e=--5---5-------------------------------------------:

enjoy!

tab by Alberto Simioni albsim88@yahoo.it
Comments