Blink 182 - Touchdown Boy Chords & Tabs

 

Touchdown Boy Chords & Tabs

Blink 182 Chords & Tabs

Version: 4 Type: Tab 0 ratings
1 star 2 stars 3 stars 4 stars 5 stars
comments

Touchdown Boy Tab

-------------------------------------------------------------------------------
			     touchdown boy - blink 182
-------------------------------------------------------------------------------
Tabbed by:brian
Email:hybrid_soldier5@yahoo.com

Tuning:ebgdae(regular)

i really like this songs if you have any parts i missed send to my email.


e|-----------------------------------------------------------------|
B|-----------------------------------------------------------------|
G|-9999-7-666-----------------7------------------------------------|
D|-9999-7-666-9999-777-66-22--7-6-7-9--11-6-7-9--9-6-7-9--7-6-7--9-|
A|-7777-9-888-9999-777-66-22--9--------11--------9--------7--------|
E|------------7777-555-44-00------------9--------7--------5--------|

e------------------------------------------------------------------|
B------------------------------------------------------------------|
G-9-----------------------------9--9-----------------------------9-|
D-9--9-7-6--9--9-7-6--7--9-7-6--9--9--9-7-6--9--9-7-6--7--6-7-6--9-|
A-7---------9---------7---------7--7---------9---------7---------7-|
E-----------7---------5----------------------7---------5-----------|

e------------------------------------------------------------------|
B------------------------------------------------------------------|
G-9-----------------------------9--9-----------------------------9-|
D-9--9-7-6--9--9-7-6--7--9-7-6--9--9--9-7-6--9--9-7-6--7--6-7-6--9-|
A-7---------9---------7---------7--7---------9---------7---------7-|
E-----------7---------5----------------------7---------5-----------|
[ Tab from: http://www.guitartabs.cc/tabs/b/blink_182/touchdown_boy_tab_ver_4.html ]
e-------------------------------------------------------------|
B-------------------------------------------------------------|
G-------------------------------------------------------------|
D---9-----9-----7---7-----7-----9-----9-----7---7-----7-------|
A-7---7-7---7-7---7---7-7---7-7---7-7---7-7---7---7-7---7-----|
E-------------------------------------------------------------|

e--------------------------------------------------------------|
B--------------------------------------------------------------|
G--------------------------------------------------------------|
D---9-----9-----7---7-----7----9-------------------------------|
A-7---7-7---7-7---7---7-7---7--9-------------------------------|
E------------------------------7-------------------------------|


Here's the verse play this part twice
E-|-------------------------------------------------------------------------|
B-|-------------------------------------------------------------------------|
G-|-9-------------11--------------------------------------------------------|
D-|-9--6-6-7-7-9--11--6-6-7-7-9--9--6-6-7-7-9--7-6-6-7-7-9------------------|
A-|-7-------------9--------------9-------------7----------------------------|
E-|------------------------------7-------------5----------------------------|
                                                                            here's the chorus

E-|-------------------------------------------------------------------------|
B-|-------------------------------------------------------------------------|
G-|-9-----------------------------------------------------------------------|
D-|-9-9-7-2-----------------------------------------------------------------|
A-|-7-9-7-2-----------------------------------------------------------------|
E-|---7-5-0-----------------------------------------------------------------|
Comments