Blink 182 - Time To Wake Up Chords & Tabs

 

Time To Wake Up Chords & Tabs

Blink 182 Chords & Tabs

Version: 3 Type: Tab 0 ratings
1 star 2 stars 3 stars 4 stars 5 stars
comments

Time To Wake Up Tab

Blink 182 - Time to Wake Up
T.O.Y.P.A.J.(Hidden, Airplane #14)
Tabbed By:Mike, hawker489@aol.com
Standard Tuning
*=palm mute

Intro   Pt. 1                          Pt. 2
e-------------------x1|-----------------------------------x2
B---------------------|-------------------------------------
G---------------------|-6-------6-------6-------------------
D-66---44---33---4--4-|-6-3-1-1-6-3-1-1-6-3-1-1---4----6----
A-66---44---33---4--4-|-4-------4-------4---------4----6----
E-44-0-22-0-11-0-2--2-|-------------------------2-2-44-4-44-
                                                *   **   **

Verse
e------------------x4
B------------------
G-6-6-6-6-6-6-6-6--
D-x-x-x-x-x-x-x-x--
A-4-4-4-4-4-4-4-4--
E------------------

Chorus(you have to listen very hard, but this is right)
e--------------------------------------x2
B--------------------------------------
G-66666666-----------------------------
D-66666666-66666666-44444444-66666666--
A-44444444-66666666-44444444-66666666--
E----------44444444-22222222-44444444--
[ Tab from: http://www.guitartabs.cc/tabs/b/blink_182/time_to_wake_up_tab_ver_3.html ]
(Intro Pt. 2)x2
(Verse)x4
(Chorusx2

Bridge(this is the correct way to play the Bridge)
e--------------------------------------------------
B--------------------------------------------------
G--------------------------------------------------
D--------------------------------------------------
A--4--4--4--4--4--4--4--4--4--4--4--4--6--6--6--6--
E-6--6--6--6--2--2--2--2--6--6--6--6--4--4--4--4---

--------------------------------------------------x3
--------------------------------------------------
--------------------------------------------------
--------------------------------------------------
--4--4--4--4--6--6--6--6--4--4--4--4--6--6--6--6--
-4--4--4--4--4--4--4--4--4--4--4--4--4--4--4--4---

Interlude
e-----------------------x1
B-----------------------
G-66------66-----66-66--
D-66--66--66--66-66-66--
A-44--66--44--66-44-44--
E-----44------44--------

(Chorus)x2

End on(don't let ring!)
e----
B----
G----
D-6--
A-6--
E-4--

Thats it. Some parts may look funny, but believe me there
right. When I play it everything sounds just perfect to me.
Good Luck, and Have Fun.
DD289
Comments