Blink 182 - The Girl Next Door Chords & Tabs

 

The Girl Next Door Chords & Tabs

Blink 182 Chords & Tabs

Version: 7 Type: Tab 0 ratings
1 star 2 stars 3 stars 4 stars 5 stars
comments

The Girl Next Door Tab

Artist   - Blink-182
Song     - The Girl Next Door
Album    - Buddha



Intro x2
E-----------------------------------------------------------------------------
B-----------------------------------------------------------------------------
G--------------------------4-4-4-4-4-4-4-4-4-4-4-4----------------------------
D-5-5-5-5-5-5-5-5-5-5-5-5--4-4-4-4-4-4-4-4-4-4-4-4----------------------------
A-5-5-5-5-5-5-5-5-5-5-5-5--2-2-2-2-2-2-2-2-2-2-2-2----------------------------
E-3-3-3-3-3-3-3-3-3-3-3-3-----------------------------------------------------

E----------------------------------------------------------------------------- 
B-----------------------------------------------------------------------------
G--------------------------5-5-5-5-5-5-5-5-5-5-5-5----------------------------
D-2-2-2-2-2-2-2-2-2-2-2-2--5-5-5-5-5-5-5-5-5-5-5-5----------------------------
A-2-2-2-2-2-2-2-2-2-2-2-2--3-3-3-3-3-3-3-3-3-3-3-3----------------------------
E-0-0-0-0-0-0-0-0-0-0-0-0-----------------------------------------------------


Riff 1
E----------------------------------------------------------------------------- 
B-----------------------------------------------------------------------------
G-----------------------------------------------------------------------------
D-----------------------------------------------------------------------------
A----0--2--3--2--0------0--5--5--5--5--5--5--5--5-----------------------------
E-3------------------3--------------------------------------------------------


Verse x2    
E-----------------------------------------------------------------------------
B-----------------------------------------------------------------------------
G--------------------------4-4-4-4-4-4-4-4-4-4-4-4----------------------------
D-5-5-5-5-5-5-5-5-5-5-5-5--4-4-4-4-4-4-4-4-4-4-4-4----------------------------
A-5-5-5-5-5-5-5-5-5-5-5-5--2-2-2-2-2-2-2-2-2-2-2-2----------------------------
E-3-3-3-3-3-3-3-3-3-3-3-3-----------------------------------------------------

E----------------------------------------------------------------------------- 
B-----------------------------------------------------------------------------
G--------------------------5-5-5-5-5-5-5-5-5-5-5-5----------------------------
D-2-2-2-2-2-2-2-2-2-2-2-2--5-5-5-5-5-5-5-5-5-5-5-5----------------------------
A-2-2-2-2-2-2-2-2-2-2-2-2--3-3-3-3-3-3-3-3-3-3-3-3----------------------------
E-0-0-0-0-0-0-0-0-0-0-0-0-----------------------------------------------------
                           x x   x x   x x   x x


Chorus x4
E-----------------------------------------------------------------------------
B-----------------------------------------------------------------------------
G------------------4-4-4-4-4-4-4-4-------------------5-5-5-5-5-5-5-5----------
D-5-5-5-5-5-5-5-5--4-4-4-4-4-4-4-4--2-2-2-2-2-2-2-2--5-5-5-5-5-5-5-5----------
A-5-5-5-5-5-5-5-5--2-2-2-2-2-2-2-2--2-2-2-2-2-2-2-2--3-3-3-3-3-3-3-3----------
E-3-3-3-3-3-3-3-3-------------------0-0-0-0-0-0-0-0---------------------------


Play the verse and chorus again, and then play                         


Verse 2
[ Tab from: http://www.guitartabs.cc/tabs/b/blink_182/the_girl_next_door_tab_ver_7.html ]
E-----------------------------------------------------------------------------
B-----------------------------------------------------------------------------
G----------------------------4------------------------------------------------
D-5--------------------------4------------------------------------------------
A-5--------------------------2-2-2-2-2-2-2-2-2-2-2----------------------------
E-3-3-3-3-3-3-3-3-3-3-3-3-3---------------------------------------------------
    x x x x x x x x x x x x    x x x x x x x x x x                       


E----------------------------------------------------------------------------- 
B-----------------------------------------------------------------------------
G--------------------------5-5-5-5-5-5-5-5-5-5-5-5----------------------------
D-2------------------------5-5-5-5-5-5-5-5-5-5-5-5----------------------------
A-2------------------------3-3-3-3-3-3-3-3-3-3-3-3----------------------------
E-0-0-0-0-0-0-0-0-0-0-0-0-----------------------------------------------------
    x x x x x x x x x x x  x x   x x   x x   x x

E-----------------------------------------------------------------------------
B-----------------------------------------------------------------------------
G--------------------------4-4-4-4-4-4-4-4-4-4-4-4----------------------------
D-5-5-5-5-5-5-5-5-5-5-5-5--4-4-4-4-4-4-4-4-4-4-4-4----------------------------
A-5-5-5-5-5-5-5-5-5-5-5-5--2-2-2-2-2-2-2-2-2-2-2-2----------------------------
E-3-3-3-3-3-3-3-3-3-3-3-3-----------------------------------------------------

E----------------------------------------------------------------------------- 
B-----------------------------------------------------------------------------
G--------------------------5-5-5-5-5-5-5-5-5-5-5-5----------------------------
D-2-2-2-2-2-2-2-2-2-2-2-2--5-5-5-5-5-5-5-5-5-5-5-5----------------------------
A-2-2-2-2-2-2-2-2-2-2-2-2--3-3-3-3-3-3-3-3-3-3-3-3----------------------------
E-0-0-0-0-0-0-0-0-0-0-0-0-----------------------------------------------------
                           x x   x x   x x   x x




Riff 1 x4
E----------------------------------------------------------------------------- 
B-----------------------------------------------------------------------------
G-----------------------------------------------------------------------------
D-----------------------------------------------------------------------------
A----0--2--3--2--0------0--5--5--5--5--5--5--5--5-----------------------------
E-3------------------3--------------------------------------------------------


Chorus x4
E-----------------------------------------------------------------------------
B-----------------------------------------------------------------------------
G------------------4-4-4-4-4-4-4-4-------------------5-5-5-5-5-5-5-5----------
D-5-5-5-5-5-5-5-5--4-4-4-4-4-4-4-4--2-2-2-2-2-2-2-2--5-5-5-5-5-5-5-5----------
A-5-5-5-5-5-5-5-5--2-2-2-2-2-2-2-2--2-2-2-2-2-2-2-2--3-3-3-3-3-3-3-3----------
E-3-3-3-3-3-3-3-3-------------------0-0-0-0-0-0-0-0---------------------------




Ending

E-----------------------------------------------------------------------------
B-----------------------------------------------------------------------------
G-5-4-2-----------------------------------------------------------------------
D-5-4-2-5---------------------------------------------------------------------
A-3-2-0-5---------------------------------------------------------------------
E-------3---------------------------------------------------------------------
Comments