Blink 182 - The Girl Next Door Chords & Tabs

 

The Girl Next Door Chords & Tabs

Blink 182 Chords & Tabs

Version: 6 Type: Tab 0 ratings
1 star 2 stars 3 stars 4 stars 5 stars
comments

The Girl Next Door Tab

Intro 1:  (Play Each Chord 10x)(listen to the song for the rhythm)
---------------------------------------------------
---------------------------------------------------
---------------------------------------------------
-----4-------5-------------------------------------
-5---2---2---3-------------------------------------
-3-------0-----------------------------------------

Intro 2: (Again, listen to the song for the rhythm)
---------------------------------------------------
---------------------------------------------------
---------------------------------------------------
-----------------0-0-0-0-0-0-0-0-0-----------------
---0-2-3-2-0---0-----------------------------------
-3-----------3-------------------------------------


---------------------------------------------------
---------------------------------------------------
---------------------------------------------------
-----------------0-0-0-0-0-0-0-0-0-----------------
---0-2-3-2-0---0-----------------------------------
-0-----------3-------------------------------------

[ Tab from: http://www.guitartabs.cc/tabs/b/blink_182/the_girl_next_door_tab_ver_6.html ]
Verse/Chorus (1st time): 
---------------------------------------------------
---------------------------------------------------
---------------------------------------------------
-----4-------5-------------------------------------
-5---2---2---3-------------------------------------
-3-------0-----------------------------------------

Chorus, 2nd time, 1st part:
---------------------------------------------------
---------------------------------------------------
---------------------------------------------------
-----------------0-0-0-0-0-0-0-0-0-----------------
---0-2-3-2-0---0-----------------------------------
-3-----------3-------------------------------------

---------------------------------------------------
---------------------------------------------------
---------------------------------------------------
-----------------0-0-0-0-0-0-0-0-0-----------------
---0-2-3-2-0---0-----------------------------------
-0-----------3-------------------------------------


Chorus, 2nd time, 2nd part/Outro:
---------------------------------------------------
---------------------------------------------------
---------------------------------------------------
-----4-------5-------------------------------------
-5---2---2---3-------------------------------------
-3-------0-----------------------------------------
Comments