Blink 182 - The Girl Next Door Chords & Tabs

 

The Girl Next Door Chords & Tabs

Blink 182 Chords & Tabs

Version: 2 Type: Tab 0 ratings
1 star 2 stars 3 stars 4 stars 5 stars
comments

The Girl Next Door Tab

Blink 182 ,girl next door .
 Tabbed by anthony calderone,tony67_@hotmail.com.
  
this is fixed version of my original tab - my first tab was horrible( i had just started playing guitar at the time ) but this is 100% correct-

intro- distortion
--------------------------------------------------------------------------------------------------------------------------------5(x8)-----------------------------
5(x8)--9(x8)-2(x8)--5---------------------------------
5------9-----2------3---------------------------------
3------7-----0---------------------------------------

riff - distortion
[ Tab from: http://www.guitartabs.cc/tabs/b/blink_182/the_girl_next_door_tab_ver_2.html ]
------------------------------------------------------------------------------------------------------------------------------------------------------------------------------------------------------------------------------232323-5555---x 4---------------------------------3- 5------------------------------------------------

verse - distortion 
--------------------------------------------------------------------------------------------------------------------------------5x(x4)-------------------------
5(x8)--9(x8)-2(x8)--5x--------------------------------
5------9-----2------3x--------------------------------
3------7-----0---------------------------------------

 
:: Ultimate Guitar Archive :: 
http://www.ultimate-guitar.com 



Comments