Blink 182 - The Country Song Chords & Tabs

 

The Country Song Chords & Tabs

Blink 182 Chords & Tabs

Version: 6 Type: Tab 0 ratings
1 star 2 stars 3 stars 4 stars 5 stars
comments

The Country Song Tab

bass intro

-----------------------------------------------------
-----------------------------------------------------
-3----3-----3-----3-----3--0--2---3-----3-----3------x2
---3-----3-----3-----3---------------3-----3---------

guitar intro

-----------------------------------------------------
-----------------------------------------------------
-----------------------------------------------------
----------------2------------------------------------x3
-----0--2---3----------------------------------------
--3--------------------------------------------------
[ Tab from: http://www.guitartabs.cc/tabs/b/blink_182/the_country_song_tab_ver_6.html ]
-----------------------------------------------------
-------1-1----1----1--1-----1-----1-1----1-----------
-------0-0----0----0--0-----0-----0-0----0-----------
-------2-2----2----2--2-----2-----2-2----2-----------x2
---3-------------3-------------3-------------3---0--2
------------3------------3-------------3-------3-----

Verse

------------------------------------------------------
------------------------------------------------------
-----5------5------5-----5-----5------5------5--------
------------------------------------------------------x2
--3------------3------------3------------------3---0-2
--------3-------------3-----------3-------3------3----


Chorus

-----------------------------------------------------
-----------------------------------------------------
------------------------------------5----------------
--3-3-3-3-3-3-3-3--5-5-5-5-5-5-5-5--x----------------
--3-3-3-3-3-3-3-3--5-5-5-5-5-5-5-5--3----------------
--1-1-1-1-1-1-1-1--3-3-3-3-3-3-3-3-------------------

By:Jonathan Scallion
e-mail: jono_hottie69@hotmail.com
Comments